Sound will begin in 5 seconds

deep elem blues spectrum intro

01234567891011121314151617181920212223
E
B
G
D
A
E
B
0 1 2 3 4 5 6 7 8 9 10 11 12 13 14 15 16 17 18 19 20 21 22 23
Song Science #1: How Pros Use 6 Chords to Write Hit Songs
(/) Slide Up  (\) Slide Down  (h) Hammer On  (p) Pull Off  (b) Bend (r) Release (v) Vibrato

Stave 1:

E|--------------------------------------------------------------------------------
B|--------------------------------------------------------------------------------
G|--------------------------------------------------------------------------------
D|-------------2--2----------------------2--2----------------------2--2-----------
A|----------2--------5--4--2----------2--------5--4--2----------2--------5--4--2--
E|--0--2/4-----------------------3h4-----------------------3h4--------------------

Stave 2:

E|-------------------------------------------------------------------------------------------------
B|--------------------------------------------------------------------5----------------------------
G|-------------------------------------------------------------------------------------------------
D|-----------------------------------------------------------2--2--2----------4/5--4--2---------2--
A|-------2-------5--4--2--------------------------0-----3h4--------------3h4-------------4p3h4-----
E|--3h4-----3h4-----------3--4--0-----0--2--3--4---------------------------------------------------

Stave 3:

E|-----------------------------------------------------------------------------------------------
B|-----------------------------------------------------------------------------------------------
G|------------------------------------------------------------------------------4----------------
D|--------------------2-------2-------2-----2-------------2----------------4/6-----6--4----------
A|--4--3--2--------------3h4-----2/4-----------4--2--4p2--------3/4--3--2----------------6\4--2--
E|-----------3--4--0-----------------------------------------------------------------------------

Stave 4:

E|-----------------------------------------------------------------------------------
B|-----------------------------------------------------------------------------------
G|-----------------------------------------------------------------------------------
D|--2--2-------------------------2-------------2----------------2---------2----------
A|--------5--4--2--4---------------------2--4-----5--4-------------2h4p2-------------
E|--------------------3h4--0--------3h4-----------------3h4--0---------------3h4--0--

http://www.guitartabcreator.com
Guitar Tab Creator is intended to store guitar tab created through the tool. It currently does not support in-line text editing. Any text you place in here will be lost. If you need to comment on your tab, please use the "Tab Notes" section located below.