Sound will begin in 5 seconds

deep elem blues spectrum 82 solo

01234567891011121314151617181920212223
E
B
G
D
A
E
B
0 1 2 3 4 5 6 7 8 9 10 11 12 13 14 15 16 17 18 19 20 21 22 23
Song Science #1: How Pros Use 6 Chords to Write Hit Songs
(/) Slide Up  (\) Slide Down  (h) Hammer On  (p) Pull Off  (b) Bend (r) Release (v) Vibrato

Stave 1:

E|-------------12----------------------------12-------------------------12-----12--------------
B|---------12------15--14--12---------12---------15--14--12---------12-------------15--14--12--
G|--11/13----------------------12h13-------------------------12h13-----------------------------
D|---------------------------------------------------------------------------------------------
A|---------------------------------------------------------------------------------------------
E|---------------------------------------------------------------------------------------------

Stave 2:

E|-------------------------------------------------------------------------------------------------
B|----------12------14b16--14--12------------------------------------------------------------------
G|--12--13------13-----------------12--13-------------------------------------------------------9--
D|-----------------------------------------14-----13--12--11--11--11-------------11------10/11-----
A|--------------------------------------------------------------------12-----12------12------------
E|-------------------------------------------------------------------------------------------------

Stave 3:

E|------------------------------------9-----7-------------12----------12-------------7-------------------
B|---------------------------------------7-----8b9------------12--10------12r10--10-----8b9--------------
G|-----------------12--11--9--6--7/9----------------9----------------------------------------9--9--7-----
D|--10/11--11--11-------------------------------------------------------------------------------------9--
A|-------------------------------------------------------------------------------------------------------
E|-------------------------------------------------------------------------------------------------------

Stave 4:

E|----------------------------10------8---------------9-----------------------------------
B|--10/12--10--12-----12--12------12-----9/10------------8b10-----------------------------
G|---------------------------------------------9---------------9--7--9-----9--7--7--7--7--
D|------------------------------------------------11--------------------------------------
A|----------------------------------------------------------------------------------------
E|----------------------------------------------------------------------------------------

Stave 5:

E|---------12-------------------------------------------------------------------------------------------
B|---------------------------------------------------------------------8/9--8/9-------------------------
G|--12/13------15--14--12------12h13------14--12h13--------------7---------------9--7-------------------
D|-------------------------14---------14-------------14-----7/9-----9------------------9--7-----5h6-----
A|-------------------------------------------------------------------------------------------7-------7--
E|------------------------------------------------------------------------------------------------------

Stave 6:

E|--------------------------------------------------------------10--------------------------------
B|--------------------------------8b9---------8b9-----8--10/12------12--12r10--8------------------
G|-------------------------------------9p7h9-------9------------------------------9--9--8p7p6-----
D|-----------5h6-----5h6-----8/9---------------------------------------------------------------7--
A|-----5--7-------7-------------------------------------------------------------------------------
E|--7---------------------------------------------------------------------------------------------

Stave 7:

E|-------------9------------------------------------------------------------------------------------
B|---------------------8-----7-------5--------------------------------------------------------------
G|-----6--7/9-----7/9-----9-----5/6-----6-------7-----7-----7---------------------------------------
D|--7--------------------------------------7/9-----9-----------9\7--6-----7b8r7--6-----7p6-----5/6--
A|---------------------------------------------------------------------7------------7-------7-------
E|--------------------------------------------------------------------------------------------------

Stave 8:

E|-------------------------------------------------------------------------------------------
B|-------------------------------------------------------------------------------------------
G|-------------------------------------------------------------------------------------------
D|------------------------------------------------------------------2--0h2--2----------2--2--
A|--7--5--------5h6-----6--7--9\7--6--------7--5/6--3p2--3--2---------------------2h4--------
E|--------7----------7----------------7------------------------3p0---------------------------

http://www.guitartabcreator.com
Guitar Tab Creator is intended to store guitar tab created through the tool. It currently does not support in-line text editing. Any text you place in here will be lost. If you need to comment on your tab, please use the "Tab Notes" section located below.