Sound will begin in 5 seconds

darkstar filmore part 2

01234567891011121314151617181920212223
E
B
G
D
A
E
B
0 1 2 3 4 5 6 7 8 9 10 11 12 13 14 15 16 17 18 19 20 21 22 23
Song Science #1: How Pros Use 6 Chords to Write Hit Songs
(/) Slide Up  (\) Slide Down  (h) Hammer On  (p) Pull Off  (b) Bend (r) Release (v) Vibrato

Stave 1:

E|-----7---------------------7-----------------------------------------------------------------------
B|--8-----8--10--7--8-----------8--10--7--8----------------------------------------------------------
G|---------------------9---------------------7--9-----5--7--6----------------------------------------
D|-------------------------------------------------7-----------7--5h7--7--5--7/9---------------------
A|--------------------------------------------------------------------------------7--5h7--5\4--------
E|---------------------------------------------------------------------------------------------5--5--

Stave 2:

E|--------------------------------------------------------------------15--15--15--15--15p14h15--
B|------------------------------------------------------------15--17----------------------------
G|---------------------------9--6--7--9/11--11--9--9--7/9---------------------------------------
D|--7--5--7/9-----7/9--7------------------------------------------------------------------------
A|-------------7--------------------------------------------------------------------------------
E|----------------------------------------------------------------------------------------------

Stave 3:

E|--15--15p14h15--15--15--17--14-------------------------15--15--15--15p14--15--15--15p14--15--15--17--
B|--------------------------------15--17-----14--15--17------------------------------------------------
G|-----------------------------------------------------------------------------------------------------
D|-----------------------------------------------------------------------------------------------------
A|-----------------------------------------------------------------------------------------------------
E|-----------------------------------------------------------------------------------------------------

Stave 4:

E|--15--15--14h15p14--------------14----------------------------------------------------
B|--------------------17--15--17------17--15--14--15p14------14-------------------------
G|-------------------------------------------------------16------16\14--12--14--14------
D|----------------------------------------------------------------------------------14--
A|--------------------------------------------------------------------------------------
E|--------------------------------------------------------------------------------------

Stave 5:

E|-----------------------------------------------------------------------------------------
B|-----------------15--14----------------------------------------------15------------------
G|--12--14--14/16----------16p14--14--16\14--12-------------12--14/16------16--14--12--14--
D|-----------------------------------------------14-----14---------------------------------
A|-----------------------------------------------------------------------------------------
E|-----------------------------------------------------------------------------------------

Stave 6:

E|------------------------------------------------------------------------------
B|------------------------------------------------------------------------------
G|--12--------------------------------------------------------------------------
D|------14--12--14------14--12--------------------------------------------------
A|------------------14----------14\12--12--14--12--10h12p10------10--12/14--12--
E|-----------------------------------------------------------12-----------------

Stave 7:

E|------17--17--17--17--17--17p16p15p14--17--17--17p16p15p14--17--17p16p15p14--15--14--15p14----------
B|--15----------------------------------------------------------------------------------------17--17--
G|----------------------------------------------------------------------------------------------------
D|----------------------------------------------------------------------------------------------------
A|----------------------------------------------------------------------------------------------------
E|----------------------------------------------------------------------------------------------------

Stave 8:

E|------17--17--17--17--17p16p15p14--17--17p16p15p14--14--15--15--14----------14------
B|--15----------------------------------------------------------------15--17------17--
G|------------------------------------------------------------------------------------
D|------------------------------------------------------------------------------------
A|------------------------------------------------------------------------------------
E|------------------------------------------------------------------------------------

Stave 9:

E|--17--17--17--17--17p16p15p14--17--17--17p16p15p14--13--15--15p14--14--14--14p12--12--12--
B|------------------------------------------------------------------------------------------
G|------------------------------------------------------------------------------------------
D|------------------------------------------------------------------------------------------
A|------------------------------------------------------------------------------------------
E|------------------------------------------------------------------------------------------

Stave 10:

E|-----------------------------------------------------------------------------------
B|--15--14p12------------------------------------------------------------------------
G|-------------14--12------14--12--14/16--16--16--16--16--16\14--12--14--------------
D|---------------------14------------------------------------------------14--12--14--
A|-----------------------------------------------------------------------------------
E|-----------------------------------------------------------------------------------

Stave 11:

E|------------------------------------------------------------------------------------------------
B|------------------------------------------------------------14----------------------------------
G|--------------------------------------------------------14------12--14--12----------------------
D|--12---------------------------------12--14---------14----------------------14------12--14------
A|------14\12--12--10----------12--14----------12---------------------------------14----------12--
E|---------------------10--12---------------------------------------------------------------------

http://www.guitartabcreator.com
Guitar Tab Creator is intended to store guitar tab created through the tool. It currently does not support in-line text editing. Any text you place in here will be lost. If you need to comment on your tab, please use the "Tab Notes" section located below.