Sound will begin in 5 seconds

DARKSTAR beginning- fillmore east ny, feb 13 1970

01234567891011121314151617181920212223
E
B
G
D
A
E
B
0 1 2 3 4 5 6 7 8 9 10 11 12 13 14 15 16 17 18 19 20 21 22 23
Song Science #1: How Pros Use 6 Chords to Write Hit Songs
(/) Slide Up  (\) Slide Down  (h) Hammer On  (p) Pull Off  (b) Bend (r) Release (v) Vibrato

Stave 1:

E|----------------------------------------------------------------------------------------
B|-----------------------------------------------------------------8--8h10--8-----8\7-----
G|---------7---------7-----------------------------------------------------------------9--
D|--9\8/9-----9\8/9--------6h7--5h7p5---------5-----5--6--7-------------------------------
A|-------------------------------------7p6h7-----7----------------------------------------
E|----------------------------------------------------------------------------------------

Stave 2:

E|------7--10--9--10/12--10--9--10--9----------------------------------------------------
B|--10---------------------------------12--10-----8--10p8--7h8p7-------------------------
G|----------------------------------------------------------------9--7--9p7--------------
D|---------------------------------------------------------------------------9--7--9--7--
A|---------------------------------------------------------------------------------------
E|---------------------------------------------------------------------------------------

Stave 3:

E|------15--14--14--14--14--14--15--15------15\14--14--14--14--14--14--15p14-------------15--14--14--
B|----------------------------------------------------------------------------17---------------------
G|--16----------------------------------16-------------------------------------------16--------------
D|---------------------------------------------------------------------------------------------------
A|---------------------------------------------------------------------------------------------------
E|---------------------------------------------------------------------------------------------------

Stave 4:

E|--14--14--14p12--15---------15--14------14------15--14--------------------------------------------------
B|------------------------------------17------17----------17---------15--12-------------------------------
G|------------------------16----------------------------------16-------------14p12------14--12h14p12------
D|----------------------------------------------------------------------------------14----------------14--
A|--------------------------------------------------------------------------------------------------------
E|--------------------------------------------------------------------------------------------------------

Stave 5:

E|-------------------------------------10-------9-----------------12--14--------15--15--14--12--12--
B|----------------------10--11/12--12-----------------12--14--15------------------------------------
G|--------------14--12---------------------7/9------------------------------------------------------
D|--12--14------------------------------------------------------------------------------------------
A|----------12--------------------------------------------------------------------------------------
E|--------------------------------------------------------------------------------------------------

Stave 6:

E|--------------------------------------------------------------------14-------------
B|--14--15--17--15--14--15v--14--15v--14--15v-----14--15--17--15--14------15--17-----
G|-----------------------------------------------------------------------------------
D|-----------------------------------------------------------------------------------
A|-----------------------------------------------------------------------------------
E|-----------------------------------------------------------------------------------

Stave 7:

E|--------------------------------------------------------------------------14-------------14--15p14------
B|---------14--17--15p14--14--14--14--17--15-----15--14--15p14------17--15------17-----17-------------17--
G|--14/16-------------------------------------------------------16----------------------------------------
D|--------------------------------------------------------------------------------------------------------
A|--------------------------------------------------------------------------------------------------------
E|--------------------------------------------------------------------------------------------------------

Stave 8:

E|--14--15--17-----17--15p14------14---------------------------------------------------------------
B|----------------------------17------15--17--15--14-----17--15--14--------------------------------
G|-------------------------------------------------------------------16--14--16p14--12--14p12------
D|---------------------------------------------------------------------------------------------14--
A|-------------------------------------------------------------------------------------------------
E|-------------------------------------------------------------------------------------------------

Stave 9:

E|------------------------------------------------------------------------------------------
B|------------------------------------------------------------------------------------------
G|------------------------------------------------------------------------------------------
D|--12--14--12---------------------------7--5-----------------------------------------------
A|--------------14\12--10/12--------5/7--------7--5--7--7--7--7--5p4--4h5p4--------7--5--7--
E|---------------------------------------------------------------------------5--3-----------

Stave 10:

E|--------------------------------------------------------------------------
B|--------------------------------------------------------------------------
G|-----------------------------------6h7p6-----7/9-----9--7--9/11--9--7--9--
D|-----------------------------5--7---------7-------------------------------
A|--------------------------7-----------------------------------------------
E|--3--5--3--5--5-----------------------------------------------------------

Stave 11:

E|-------------------------------------------------------------------------------------------8--7-------
B|-----7h8p7-----10--8--7-----8--7-----10--8p7-----8--7-----10--8p7-----8--7-----10--8p7-----------8--8/
G|--9---------9------------9--------9-----------9--------9-----------9--------9-----------9-------------
D|------------------------------------------------------------------------------------------------------
A|------------------------------------------------------------------------------------------------------
E|------------------------------------------------------------------------------------------------------

Stave 12:

E|---------------------------------------------------------10--10--10--10p9h10--10--10p9h10--10--10p9h10/
B|--10--8p7--8--7-----7----------------------------------------------------------------------------------
G|-----------------9-----9p7--9/11--11p9p7--9--7--9--9---------------------------------------------------
D|-------------------------------------------------------------------------------------------------------
A|-------------------------------------------------------------------------------------------------------
E|-------------------------------------------------------------------------------------------------------

Stave 13:

E|--12--12--12--10p9--10--10--10--9--10--10--9--10--12--12--12p10p9--10--9------
B|--------------------------------------------------------------------------10--
G|------------------------------------------------------------------------------
D|------------------------------------------------------------------------------
A|------------------------------------------------------------------------------
E|------------------------------------------------------------------------------

Stave 14:

E|-----9--10--12--10--9--10-----9--10--12--10--9--10--9------------------------------7-----
B|-------------------------------------------------------12--10--12--8--10--8--7--8--------
G|--------------------------------------------------------------------------------------9--
D|-----------------------------------------------------------------------------------------
A|-----------------------------------------------------------------------------------------
E|-----------------------------------------------------------------------------------------

Stave 15:

E|---------------------
B|--10--8--7--7--8-----
G|------------------9--
D|---------------------
A|---------------------
E|---------------------

http://www.guitartabcreator.com
Guitar Tab Creator is intended to store guitar tab created through the tool. It currently does not support in-line text editing. Any text you place in here will be lost. If you need to comment on your tab, please use the "Tab Notes" section located below.