Sound will begin in 5 seconds

cool blues grant green solo 2

01234567891011121314151617181920212223
E
B
G
D
A
E
B
0 1 2 3 4 5 6 7 8 9 10 11 12 13 14 15 16 17 18 19 20 21 22 23
Song Science #1: How Pros Use 6 Chords to Write Hit Songs
(/) Slide Up  (\) Slide Down  (h) Hammer On  (p) Pull Off  (b) Bend (r) Release (v) Vibrato

Stave 1:

E|------9-------------------------------------------------------------------------
B|--11-----11---------9-----------------------6--6--------------------------------
G|----------------10-----10--------6h7--8--8--------------------8/10--8--6--------
D|------------------------------8-------------------8--7--6-----------------8--8--
A|--------------------------------------------------------------------------------
E|--------------------------------------------------------------------------------

Stave 2:

E|-------------------------------------------------------------------------------------9/10--
B|-------------------------------------------------------------9--8h9p8-------------8--------
G|--9/10--9/10--8--10--6h7--------------10p9p8p7--------7--10------------10--8--10-----------
D|--------------------------8--5--5---------------10p9---------------------------------------
A|-------------------------------------------------------------------------------------------
E|-------------------------------------------------------------------------------------------

Stave 3:

E|--8------------------------------------------------------------------------------------13--
B|-----11--8----------------10h11p10---------------------------------------------------------
G|------------8-----------------------12--10-------------------------------------10----------
D|---------------10--11------------------------------13--12--10--12--10--------------13------
A|--------------------------------------------12h13----------------------13--12--------------
E|-------------------------------------------------------------------------------------------

Stave 4:

E|--10--11----------10--9------------------------------------11--10--8--9--8--7--------------------
B|--------------11---------10--9---------------------11--13----------------------9--7--------------
G|----------12--------------------11--10-----12--13------------------------------------7--6--------
D|-------------------------------------------------------------------------------------------9--8--
A|-------------------------------------------------------------------------------------------------
E|-------------------------------------------------------------------------------------------------

Stave 5:

E|-----------------8---------------------------------------------------6--------------
B|-----------6--8--------9p8p7p6--------3/4--3--------3-------------------8-----------
G|--5--6--8-------------------------------------4--------5--------7h8--------8--7--5--
D|-------------------------------------------------5----------------------------------
A|------------------------------------------------------------------------------------
E|------------------------------------------------------------------------------------

Stave 6:

E|------------------------------6--------------------
B|------------8--9--8--------------8-----------------
G|--7h8h9h10-----------10--7/8--------8--7--5--5--5--
D|---------------------------------------------------
A|---------------------------------------------------
E|---------------------------------------------------

http://www.guitartabcreator.com
Guitar Tab Creator is intended to store guitar tab created through the tool. It currently does not support in-line text editing. Any text you place in here will be lost. If you need to comment on your tab, please use the "Tab Notes" section located below.