Sound will begin in 5 seconds

common ground tony rice

01234567891011121314151617181920212223
E
B
G
D
A
E
B
0 1 2 3 4 5 6 7 8 9 10 11 12 13 14 15 16 17 18 19 20 21 22 23
Song Science #1: How Pros Use 6 Chords to Write Hit Songs
(/) Slide Up  (\) Slide Down  (h) Hammer On  (p) Pull Off  (b) Bend (r) Release (v) Vibrato

Stave 1:

E|------------------------------------------------4\3---------------------------------------------------
B|----------------------------3-----3h5--------6-------5--------10p9h10p9h10----------------------7--8--
G|-----------------------2/4-----4----------6-------------5------------------------7--------7--9--------
D|-----2-----0----------------------------------------------------------------8/9-----9--9--------------
A|--2-----2-----2---------------------------------------------------------------------------------------
E|-----------------0------------------------------------------------------------------------------------

Stave 2:

E|------------7--10--9-----7--------------------------
B|--7--8--10------------8-----10--8p7-----7-----------
G|-------------------------------------9-----7--7-----
D|-------------------------------------------------9--
A|----------------------------------------------------
E|----------------------------------------------------

Stave 3:

E|--0--0--7--4--------4--7-------0--5--2--------2--5--------------------------7-----10--7------------
B|--------------5--7--------5/7-----------3--5--------3/5-----8------------------8---------10--8-----
G|---------------------------------------------------------------9------7--9----------------------9--
D|------------------------------------------------------------------10-------------------------------
A|---------------------------------------------------------------------------------------------------
E|---------------------------------------------------------------------------------------------------

Stave 4:

E|--
B|--
G|--
D|--
A|--
E|--

http://www.guitartabcreator.com
Guitar Tab Creator is intended to store guitar tab created through the tool. It currently does not support in-line text editing. Any text you place in here will be lost. If you need to comment on your tab, please use the "Tab Notes" section located below.