Sound will begin in 5 seconds

comes a time solo 1 5/9/77

01234567891011121314151617181920212223
E
B
G
D
A
E
B
0 1 2 3 4 5 6 7 8 9 10 11 12 13 14 15 16 17 18 19 20 21 22 23
Song Science #1: How Pros Use 6 Chords to Write Hit Songs
(/) Slide Up  (\) Slide Down  (h) Hammer On  (p) Pull Off  (b) Bend (r) Release (v) Vibrato

Stave 1:

E|-------------------------------14--------------------------------------
B|-------------14--17b19r17--17----------------17------------------------
G|--14--16b18---------------------------16b18------16b18--18r16--14--14--
D|-----------------------------------------------------------------------
A|-----------------------------------------------------------------------
E|-----------------------------------------------------------------------

Stave 2:

E|-----------------------------------------------------------------17----------------------------------
B|-------------14--17b19r17--17b19r17-----14h15p14h15--14--------------17b19--17p14--------------------
G|--14--16b18----------------------------------------------16--14--------------------16b18r16--14------
D|-------------------------------------------------------------------------------------------------16--
A|-----------------------------------------------------------------------------------------------------
E|-----------------------------------------------------------------------------------------------------

Stave 3:

E|-------------------------------------------------------------------19b21r19--17--19--
B|------------------------------------------17--17/19---------17-----------------------
G|--16b18r16--16--18--16--18--16-----16b18-------------16b18---------------------------
D|-------------------------------------------------------------------------------------
A|-------------------------------------------------------------------------------------
E|-------------------------------------------------------------------------------------

Stave 4:

E|---------------------------------------------------------------------------------
B|---------------------------------------------------------------------------------
G|--16b18r16p14--16-----14------14h16-------------14h16p14--14---------------------
D|--------------------------16---------14h16v-------------------14h16--14------14--
A|-------------------------------------------------------------------------16------
E|---------------------------------------------------------------------------------

Stave 5:

E|---------------------------------------------------------------------------------14--17--19--19b21--
B|----------17b19--17b19r17--17-----14--15--17--14/15--14--------------14--15--17---------------------
G|--14--14-------------------------------------------------16--14--16---------------------------------
D|----------------------------------------------------------------------------------------------------
A|----------------------------------------------------------------------------------------------------
E|----------------------------------------------------------------------------------------------------

Stave 6:

E|--19b21--
B|---------
G|---------
D|---------
A|---------
E|---------

http://www.guitartabcreator.com
Guitar Tab Creator is intended to store guitar tab created through the tool. It currently does not support in-line text editing. Any text you place in here will be lost. If you need to comment on your tab, please use the "Tab Notes" section located below.