Sound will begin in 5 seconds

cinnnegar ideas

01234567891011121314151617181920212223
E
B
G
D
A
E
B
0 1 2 3 4 5 6 7 8 9 10 11 12 13 14 15 16 17 18 19 20 21 22 23
Song Science #1: How Pros Use 6 Chords to Write Hit Songs
(/) Slide Up  (\) Slide Down  (h) Hammer On  (p) Pull Off  (b) Bend (r) Release (v) Vibrato

Stave 1:

E|-----------------------7--10--15--12------------------------------
B|--------------------8-----------------15--12----------12--15--15--
G|--------------4--7----------------------------14--12--------------
D|-----------5------------------------------------------------------
A|-----2--5---------------------------------------------------------
E|--3---------------------------------------------------------------

Stave 2:

E|-----------------------7--10--15--12--------------------------------------15--19--15------------------
B|--------------------8-----------------15--12------------------12--15--17--------------17--15----------
G|--------------4--7----------------------------------------12----------------------------------16------
D|-----------5------------------------------------------12------------------------------------------17--
A|-----2--5-----------------------------------------14--------------------------------------------------
E|--3-------------------------------------------15------------------------------------------------------

Stave 3:

E|------------------
B|------------------
G|------------------
D|--------------17--
A|--17--14----------
E|----------15------

Stave 4:

E|-----------------------7--10--10--7---------------
B|--------------------8----------------8------------
G|--------------4--7----------------------7---------
D|-----------5-------------------------------9------
A|-----2--5-------------------------------------10--
E|--3-----------------------------------------------

Stave 5:

E|--------------------------6--9--6--------9--8--7--6--4--2-----5--4--2-------------------------
B|-----------------------7-----------7-----------------------4-----------5--4--2----------------
G|--------------3--6--------------------6-----------------------------------------4--2--2h3-----
D|-----------4--------4----------------------------------------------------------------------4--
A|-----1--4-------------------------------------------------------------------------------------
E|--2-------------------------------------------------------------------------------------------

Stave 6:

E|-----------------------------------------------------------
B|-----------------------------------------3--6--5-----------
G|--------------4--7-----4--5--6--7-----4-----------7--6--5--
D|-----------5--------5--------------5-----------------------
A|-----2--5--------------------------------------------------
E|--3--------------------------------------------------------

Stave 7:

E|------------------------------------------15--14--13--12------------------------------------------
B|------------------12--15--13--12--------------------------15--12--13--14--15--14--13--12----------
G|--------------12------------------14--12--------------------------------------------------14--12--
D|----------12--------------------------------------------------------------------------------------
A|------14------------------------------------------------------------------------------------------
E|--15----------------------------------------------------------------------------------------------

Stave 8:

E|-----------------------------------------15--17--18--19--18--17--15--12----------------------
B|-------------------------------------------------------------------------15--12--15--14--13--
G|------------------------------12--14/16------------------------------------------------------
D|--14--12------------------12-----------------------------------------------------------------
A|----------14--12------14---------------------------------------------------------------------
E|------------------15-------------------------------------------------------------------------

Stave 9:

E|----------------------------------
B|--12------------------------------
G|------14--12--11--12--14----------
D|--------------------------14--11--
A|----------------------------------
E|----------------------------------

Stave 10:

E|-----5--9--8--7--5-------------------
B|--5-----------------8--5-------------
G|--------------------------8--7--5/6--
D|-------------------------------------
A|-------------------------------------
E|-------------------------------------

http://www.guitartabcreator.com
Guitar Tab Creator is intended to store guitar tab created through the tool. It currently does not support in-line text editing. Any text you place in here will be lost. If you need to comment on your tab, please use the "Tab Notes" section located below.