Sound will begin in 5 seconds

china cat oklahoma verse solo 3

01234567891011121314151617181920212223
E
B
G
D
A
E
B
0 1 2 3 4 5 6 7 8 9 10 11 12 13 14 15 16 17 18 19 20 21 22 23
Song Science #1: How Pros Use 6 Chords to Write Hit Songs
(/) Slide Up  (\) Slide Down  (h) Hammer On  (p) Pull Off  (b) Bend (r) Release (v) Vibrato

Stave 1:

E|--------------------------------------------14--15-----14----------14---------------------------
B|----------------------------------------15-----------------17--15------17p15-----15--15--15p13--
G|-----------------------------12--14/16----------------------------------------------------------
D|---------12--14------12--14---------------------------------------------------------------------
A|--13/14----------14-----------------------------------------------------------------------------
E|------------------------------------------------------------------------------------------------

Stave 2:

E|-----------------------------------------------------------------------------------------------------
B|--13--13--13p12--12h13p12------------------------------------12h13p12--------------12h13p12------15--
G|---------------------------14p12------12-----14------12--14------------14--12--14------------14------
D|----------------------------------14-------------14--------------------------------------------------
A|-----------------------------------------------------------------------------------------------------
E|-----------------------------------------------------------------------------------------------------

Stave 3:

E|----------14p13----------13--13p12------12--12p10------10-----------------------------
B|--12--15---------14--11-------------13-------------12------12p10----------------------
G|------------------------------------------------------------------12--12--12--11--11--
D|--------------------------------------------------------------------------------------
A|--------------------------------------------------------------------------------------
E|--------------------------------------------------------------------------------------

Stave 4:

E|-----------------------------------------------------------------------------------------------12h13p
B|-----------------------------------------------------------------------------------13------13--------
G|--------------------------12--------------------12--12--12p11------11--12--13--14------14------------
D|------10------10--12--14------14--13--12-----------------------12------------------------------------
A|--12------12-----------------------------------------------------------------------------------------
E|-----------------------------------------------------------------------------------------------------

Stave 5:

E|----------12-----------------------------------------14--
B|--15--13------12--13--13------12--13--14--15p13----------
G|--------------------------14---------------------14------
D|---------------------------------------------------------
A|---------------------------------------------------------
E|---------------------------------------------------------

http://www.guitartabcreator.com
Guitar Tab Creator is intended to store guitar tab created through the tool. It currently does not support in-line text editing. Any text you place in here will be lost. If you need to comment on your tab, please use the "Tab Notes" section located below.