Sound will begin in 5 seconds

china cat oklahoma verse solo 2

01234567891011121314151617181920212223
E
B
G
D
A
E
B
0 1 2 3 4 5 6 7 8 9 10 11 12 13 14 15 16 17 18 19 20 21 22 23
Song Science #1: How Pros Use 6 Chords to Write Hit Songs
(/) Slide Up  (\) Slide Down  (h) Hammer On  (p) Pull Off  (b) Bend (r) Release (v) Vibrato

Stave 1:

E|------------------------------------7h8p7------7------------10--------10/12--12--12--10--
B|------------------8-----8-----8h10---------10-----8--10/12------8h10---------------------
G|---------------------9-----9-------------------------------------------------------------
D|-------5--5--7/9-------------------------------------------------------------------------
A|--6/7------------------------------------------------------------------------------------
E|-----------------------------------------------------------------------------------------

Stave 2:

E|---------------------------------------15-----------------------------------------------------------
B|---------12h13p12------12--13--14--15------15------17--15---------15--13--12------13---------13\12--
G|--10/12------------14--------------------------14----------15h16--------------14------13h14---------
D|----------------------------------------------------------------------------------------------------
A|----------------------------------------------------------------------------------------------------
E|----------------------------------------------------------------------------------------------------

Stave 3:

E|----------------------------------------------------------------------------------------------
B|------15-----13--12-------------------------------------------------------------------13------
G|--14-----------------14--12--11-------------11--14p12p11----------11--11--12--13--14------14--
D|------------------------------------12--12----------------12--12------------------------------
A|----------------------------------------------------------------------------------------------
E|----------------------------------------------------------------------------------------------

Stave 4:

E|-----------------------------------15p14p12--14------12---------12---------------------------------
B|--12h13p12------12--13--14--15-------------------15------13h15------13------12----------12---------
G|------------14----------------------------------------------------------14------12--14------14\12--
D|---------------------------------------------------------------------------------------------------
A|---------------------------------------------------------------------------------------------------
E|---------------------------------------------------------------------------------------------------

Stave 5:

E|---------------------------------------------------------------------7--
B|--------------------------------------------------7--9-----7--9--10-----
G|--12p11------11---------------------------7/9--9--------9---------------
D|---------12------12p10------10--12--------------------------------------
A|------------------------12----------------------------------------------
E|------------------------------------------------------------------------

Stave 6:

E|--7--9--7--10--9--7------7------------------------------------------------------------------------------
B|---------------------10-----10--9--7-----------------7--7--10--9--7-----------7-------------------------
G|--------------------------------------9-----9--9--9------------------9--7--9-----9-----7--9p7-----7-----
D|------------------------------------------------------------------------------------9----------9-----9--
A|--------------------------------------------------------------------------------------------------------
E|--------------------------------------------------------------------------------------------------------

Stave 7:

E|--------------------------------------------------9-------------9--10---------9--10--10/12--
B|------------7h9p7-----7--9--10--12-----9--10--12--------10--12------------12----------------
G|--9\5--5/9---------9------------------------------------------------------------------------
D|--------------------------------------------------------------------------------------------
A|--------------------------------------------------------------------------------------------
E|--------------------------------------------------------------------------------------------

Stave 8:

E|--12--10--9------10--9----------9-----------------------------------------------------------9----------
B|-------------12---------12--10-----12--9--9--12--10--9------10---------9---------9--10--12-----12--10--
G|--------------------------------------------------------11------9--11-----10h11------------------------
D|-------------------------------------------------------------------------------------------------------
A|-------------------------------------------------------------------------------------------------------
E|-------------------------------------------------------------------------------------------------------

Stave 9:

E|--------------------------------------------------------12----------------16r14--12--12--11--9--
B|--9h10p9---------------9--10------9--10--11--12--12/14------14p12--12---------------------------
G|----------11--9-----9---------11----------------------------------------------------------------
D|------------------------------------------------------------------------------------------------
A|------------------------------------------------------------------------------------------------
E|------------------------------------------------------------------------------------------------

Stave 10:

E|--13r11--9-----------------------------------------------------------------------------9h11--12--
B|------------12--14b16r14--12--14--12------12--14--12------12--14b16r14--12-----11--12------------
G|--------------------------------------13--------------13-----------------------------------------
D|-------------------------------------------------------------------------------------------------
A|-------------------------------------------------------------------------------------------------
E|-------------------------------------------------------------------------------------------------

Stave 11:

E|--9--11------9--11--12/14--11----------11--12--14-----12p11------11---------------------------------
B|---------12--------------------12--14------------------------12------14--14------12------12---------
G|-----------------------------------------------------------------------------11------13------13p11--
D|----------------------------------------------------------------------------------------------------
A|----------------------------------------------------------------------------------------------------
E|----------------------------------------------------------------------------------------------------

Stave 12:

E|----------------------------------------------------
B|------------------------------------------9/11------
G|--------------11----------------------10--------12--
D|--11-----/13------13\11--11\9------7----------------
A|-------------------------------11-------------------
E|----------------------------------------------------

http://www.guitartabcreator.com
Guitar Tab Creator is intended to store guitar tab created through the tool. It currently does not support in-line text editing. Any text you place in here will be lost. If you need to comment on your tab, please use the "Tab Notes" section located below.