Sound will begin in 5 seconds

china cat oklahoma verse solo 1

01234567891011121314151617181920212223
E
B
G
D
A
E
B
0 1 2 3 4 5 6 7 8 9 10 11 12 13 14 15 16 17 18 19 20 21 22 23
Song Science #1: How Pros Use 6 Chords to Write Hit Songs
(/) Slide Up  (\) Slide Down  (h) Hammer On  (p) Pull Off  (b) Bend (r) Release (v) Vibrato

Stave 1:

E|-------------------------------------------------------------------15--------------
B|-------------8-----10-----10------------15--17p15------15--16--17------17--16--15--
G|-------7--9-----9------9---------14/16-------------16------------------------------
D|--8/9------------------------------------------------------------------------------
A|-----------------------------------------------------------------------------------
E|-----------------------------------------------------------------------------------

Stave 2:

E|---------15--12-------------15-------------15------------------------------
B|--15b17----------17--15---------15--15\13------13\12-----10p8-----8--7-----
G|---------------------------------------------------------------9--------7--
D|---------------------------------------------------------------------------
A|---------------------------------------------------------------------------
E|---------------------------------------------------------------------------

Stave 3:

E|---------------------8------8h10p8------8------8------10--10--8------------------14------
B|--------7--8--9--10-----10----------10-----10-----10-----------------13--14--15------15--
G|-----7-----------------------------------------------------------14----------------------
D|--7--------------------------------------------------------------------------------------
A|-----------------------------------------------------------------------------------------
E|-----------------------------------------------------------------------------------------

Stave 4:

E|------14h15p14------14--15/17--17--16--15------15\14-----------------------------
B|--15------------15-------------------------17---------15--13--15p13------13--15--
G|---------------------------------------------------------------------14----------
D|---------------------------------------------------------------------------------
A|---------------------------------------------------------------------------------
E|---------------------------------------------------------------------------------

http://www.guitartabcreator.com
Guitar Tab Creator is intended to store guitar tab created through the tool. It currently does not support in-line text editing. Any text you place in here will be lost. If you need to comment on your tab, please use the "Tab Notes" section located below.