Sound will begin in 5 seconds

china cat oklahoma part 2

01234567891011121314151617181920212223
E
B
G
D
A
E
B
0 1 2 3 4 5 6 7 8 9 10 11 12 13 14 15 16 17 18 19 20 21 22 23
Song Science #1: How Pros Use 6 Chords to Write Hit Songs
(/) Slide Up  (\) Slide Down  (h) Hammer On  (p) Pull Off  (b) Bend (r) Release (v) Vibrato

Stave 1:

E|-------------------------------------------------------------------------------------------------14--
B|--13---------13----------12------------------------------------------------------------------13------
G|------13h14------14--12------14p13p12--12p11------------------11------11--12------11--12/14----------
D|----------------------------------------------12--10--10v---------12----------12---------------------
A|-----------------------------------------------------------------------------------------------------
E|-----------------------------------------------------------------------------------------------------

Stave 2:

E|-----------------------------------------------14----------------------------------------
B|-----------------------------------------------------------------------------------------
G|--14p13p12----------11------12------12--12/14------14p13p12----------11----------11--12--
D|------------12--12------12------12---------------------------12--12------12--14----------
A|-----------------------------------------------------------------------------------------
E|-----------------------------------------------------------------------------------------

Stave 3:

E|---------------------------------------10----------------------------------------------
B|-----------------12--------------------------------------------------------------------
G|--13--13h14--14------14\12--12--10/11------13--12--10/11----------------10------10/11--
D|----------------------------------------------------------12-----11h12------12---------
A|---------------------------------------------------------------------------------------
E|---------------------------------------------------------------------------------------

Stave 4:

E|---------------------------------------------------------------------------------10----------
B|------------------------------------13--13--13--13--13b15r13--10-------------10------12--10--
G|------10/11--11--12------11--12/14--------------------------------12p10--11------------------
D|--12-----------------12----------------------------------------------------------------------
A|---------------------------------------------------------------------------------------------
E|---------------------------------------------------------------------------------------------

Stave 5:

E|--------------------------------------------------------10--12--10------10--12/14--
B|------10-----------------12--11--10------10---------10--------------12-------------
G|--12------12--10/11------------------11------10h11---------------------------------
D|---------------------12------------------------------------------------------------
A|-----------------------------------------------------------------------------------
E|-----------------------------------------------------------------------------------

Stave 6:

E|--13--15--14--13------12--13--14--14--15--14--13------13--14--13--12------15--14--13------
B|------------------15------------------------------15------------------15--------------15--
G|------------------------------------------------------------------------------------------
D|------------------------------------------------------------------------------------------
A|------------------------------------------------------------------------------------------
E|------------------------------------------------------------------------------------------

Stave 7:

E|--14--13--12------12--------------------------------------------------------------------
B|--------------15--------------12h13p12------12------12----------------------------------
G|----------------------14--14------------14------14------13\12--10--12--10/11------------
D|------------------------------------------------------------------------------12p11h12--
A|----------------------------------------------------------------------------------------
E|----------------------------------------------------------------------------------------

Stave 8:

E|------------------------------------------------------------------------------------------------
B|------------------------10------12------10--12--13\12--10--12------------10------12--10--12b14--
G|--10/11------12--10/11------11------11----------------------------10/11------11-----------------
D|---------12-------------------------------------------------------------------------------------
A|------------------------------------------------------------------------------------------------
E|------------------------------------------------------------------------------------------------

Stave 9:

E|---------------------------10------------------------------------------------------------------------
B|--12b14r12--10--12p10--12-----------------12--10--12b14--14--14r12------------10-------------12--10--
G|-----------------------------------10h11-------------------------------10h11------12--10h11----------
D|-------------------------------12--------------------------------------------------------------------
A|-----------------------------------------------------------------------------------------------------
E|-----------------------------------------------------------------------------------------------------

Stave 10:

E|----------------------10------10--12/14--14--12-------------14--------------------
B|--10--13--10--12--12------12---------------------15-------------------------------
G|-----------------------------------------------------13/14------14\12--10--11--10/
D|----------------------------------------------------------------------------------
A|----------------------------------------------------------------------------------
E|----------------------------------------------------------------------------------

Stave 11:

E|--10--------------------------------------10-------------10---------------------------------10--
B|------12----------12----------10--11--12-------------10------12--12--10------10-----------------
G|--------------11------11--11------------------10h11----------------------11----------10h11------
D|----------12---------------------------------------------------------------------12-------------
A|------------------------------------------------------------------------------------------------
E|------------------------------------------------------------------------------------------------

Stave 12:

E|------------------------------------10---------------10-------------------------------
B|-----------------------7--8--9--10------7--8--9--10------7----------------------------
G|--11\9--7--9--8--7------------------------------------------9b11--11--11--11p9--7--9--
D|--------------------------------------------------------------------------------------
A|--------------------------------------------------------------------------------------
E|--------------------------------------------------------------------------------------

Stave 13:

E|---------------------------
B|---------------------------
G|--7------------------------
D|-----9p7-----7-------------
A|----------9-----7--9/7--5--
E|---------------------------

http://www.guitartabcreator.com
Guitar Tab Creator is intended to store guitar tab created through the tool. It currently does not support in-line text editing. Any text you place in here will be lost. If you need to comment on your tab, please use the "Tab Notes" section located below.