Sound will begin in 5 seconds

china cat oklahoma

01234567891011121314151617181920212223
E
B
G
D
A
E
B
0 1 2 3 4 5 6 7 8 9 10 11 12 13 14 15 16 17 18 19 20 21 22 23
Song Science #1: How Pros Use 6 Chords to Write Hit Songs
(/) Slide Up  (\) Slide Down  (h) Hammer On  (p) Pull Off  (b) Bend (r) Release (v) Vibrato

Stave 1:

E|--------------------------------------------------12--15--14--12----------12--------------
B|----------------------------------------------13------------------15--13------15--13--12--
G|-------------11------11h12p11------11--12/14----------------------------------------------
D|--12p10--12------12------------12---------------------------------------------------------
A|------------------------------------------------------------------------------------------
E|------------------------------------------------------------------------------------------

Stave 2:

E|-------------------------------------------------------------------------------------------------------
B|--15--13--12------13--12----------12-------------------------------------------------------------------
G|--------------14----------14--13------14--13--12--11h12p11------11----------11h12--11--12--14--14--14--
D|------------------------------------------------------------12------10--12-----------------------------
A|-------------------------------------------------------------------------------------------------------
E|-------------------------------------------------------------------------------------------------------

Stave 3:

E|--------------------------------------------------------------17--16--15--13--15--14--13------
B|--15--15--15--15p13--15--15--15--15p13--15--15--15--15p13h15------------------------------15--
G|----------------------------------------------------------------------------------------------
D|----------------------------------------------------------------------------------------------
A|----------------------------------------------------------------------------------------------
E|----------------------------------------------------------------------------------------------

Stave 4:

E|--13-----------------------------------10----------10--13b15-----------------------
B|------15p13------15--13b15--13-------------13--10-------------15p13------15p13h15--
G|-------------14-----------------11h12--------------------------------14------------
D|-----------------------------------------------------------------------------------
A|-----------------------------------------------------------------------------------
E|-----------------------------------------------------------------------------------

Stave 5:

E|---------------------------------------------------------------------10-----------------------------
B|--15--13---------13------------------------------------------------------13--10------10-------------
G|----------13h14------14--12--10------10------------10/11--12--10/11--------------12------10h11------
D|---------------------------------12------12p11h12-----------------------------------------------12--
A|----------------------------------------------------------------------------------------------------
E|----------------------------------------------------------------------------------------------------

Stave 6:

E|--------------------------------------------15--14--12------14--12----------12------------------
B|--------------------------------------------------------15----------15--13------15--13--12--15--
G|--12------10--12b14--12--12------10h11----------------------------------------------------------
D|------12---------------------12---------12------------------------------------------------------
A|------------------------------------------------------------------------------------------------
E|------------------------------------------------------------------------------------------------

Stave 7:

E|---------------------------------------------------------------------------
B|--15--13--12--10--13p12p10--12------10---------10--------------------------
G|--------------------------------12------11h12------12p11p9--12--11--9------
D|-----------------------------------------------------------------------12--
A|---------------------------------------------------------------------------
E|---------------------------------------------------------------------------

Stave 8:

E|----------------------------------------------------------------------------------------
B|----------------------------------------------------------------------------------------
G|--9--11--12--11------11------9--11--12p11p9h11-----11------9----------11---------11h12--
D|-----------------12------10----------------------------12-----10--12------11h12---------
A|----------------------------------------------------------------------------------------
E|----------------------------------------------------------------------------------------

Stave 9:

E|------------------------------------------------------------------------------9---------10--12--12b14--
B|-----------------------------------------------10---------10--12--10--11--12-----11h12-----------------
G|--12p11p9--11--9------9---------9--12--11--12------11h12-----------------------------------------------
D|------------------12--------12-------------------------------------------------------------------------
A|-------------------------------------------------------------------------------------------------------
E|-------------------------------------------------------------------------------------------------------

Stave 10:

E|---------15---------17--17----------------17--16--15--15--14----------14---------------------
B|--16h17------17b19----------17b19r17--15----------------------17--15------15---------13--15--
G|------------------------------------------------------------------------------13h14----------
D|---------------------------------------------------------------------------------------------
A|---------------------------------------------------------------------------------------------
E|---------------------------------------------------------------------------------------------

Stave 11:

E|----------------------------------------------------------------------------------------
B|--13--15--15b17r15--13--15--13b15--13------13--13------13--13-----13-----13---------13--
G|---------------------------------------14----------14------------------------14---------
D|----------------------------------------------------------------------------------------
A|----------------------------------------------------------------------------------------
E|----------------------------------------------------------------------------------------

http://www.guitartabcreator.com
Guitar Tab Creator is intended to store guitar tab created through the tool. It currently does not support in-line text editing. Any text you place in here will be lost. If you need to comment on your tab, please use the "Tab Notes" section located below.