Sound will begin in 5 seconds

china cat july 17, 1989 ALPINE! part 3

01234567891011121314151617181920212223
E
B
G
D
A
E
B
0 1 2 3 4 5 6 7 8 9 10 11 12 13 14 15 16 17 18 19 20 21 22 23
Song Science #1: How Pros Use 6 Chords to Write Hit Songs
(/) Slide Up  (\) Slide Down  (h) Hammer On  (p) Pull Off  (b) Bend (r) Release (v) Vibrato

Stave 1:

E|--------------------------------------------------------------------------------------
B|--13--13--13--13--15--13--12----------13--13--13--13--12------13--13--13--13--12------
G|------------------------------14--14----------------------14----------------------14--
D|--------------------------------------------------------------------------------------
A|--------------------------------------------------------------------------------------
E|--------------------------------------------------------------------------------------

Stave 2:

E|------------------------------------------------------17--19--20--20--20--20--20--19--20--19----------
B|--13--12----------12----------13--14--15--17--19--20------------------------------------------22--22--
G|----------14--12------13--14--------------------------------------------------------------------------
D|------------------------------------------------------------------------------------------------------
A|------------------------------------------------------------------------------------------------------
E|------------------------------------------------------------------------------------------------------

Stave 3:

E|--20--20--20--20--19--20--19--17--17--20--19--20--19--17--20--19--20--19--17--20--19--17--19--
B|----------------------------------------------------------------------------------------------
G|----------------------------------------------------------------------------------------------
D|----------------------------------------------------------------------------------------------
A|----------------------------------------------------------------------------------------------
E|----------------------------------------------------------------------------------------------

Stave 4:

E|--20p19p18p17----------17-------------------------------------------16--17--19--20--22--
B|---------------19--20------20--19--17--20p19p17-------------17--19----------------------
G|-------------------------------------------------19--17---------------------------------
D|----------------------------------------------------------------------------------------
A|----------------------------------------------------------------------------------------
E|----------------------------------------------------------------------------------------

Stave 5:

E|--22--22p21p20p19----------19----------19--20--20--22p20p19h20--19----------19----------
B|-------------------20--22------20--22-------------------------------20--20------20--20--
G|----------------------------------------------------------------------------------------
D|----------------------------------------------------------------------------------------
A|----------------------------------------------------------------------------------------
E|----------------------------------------------------------------------------------------

Stave 6:

E|-------------------------------------------------------------------------------------------------
B|--20--19--17-------------------------------------------------------------------------------------
G|--------------19--19--19--18--19--17-----17--17--17--17--17--16--14------16--14--17--16--14--12--
D|---------------------------------------------------------------------17--------------------------
A|-------------------------------------------------------------------------------------------------
E|-------------------------------------------------------------------------------------------------

Stave 7:

E|-------------------------------------------------------------------------------------------------
B|-------------------------------------------------------------------------------------------------
G|--16--14--12--11--14p12p11---------------------------------------------------------9------9--11--
D|----------------------------14--12--10----------------9--10--9--10--12--9--10--12-----12---------
A|-------------------------------------------10/12--12---------------------------------------------
E|-------------------------------------------------------------------------------------------------

Stave 8:

E|-------------------------------------------------------------------------------------------------
B|-------------------------------------------------------------------------------------------------
G|--14--12--11-------------------------12--11--9------------------9----------9--12--11--9----------
D|--------------14--12--10--10-----10-------------12--10--10--12-----10--12----------------12--10--
A|-------------------------------------------------------------------------------------------------
E|-------------------------------------------------------------------------------------------------

Stave 9:

E|--------------------------------------------------------------------------------
B|--------------------------------------------------------------------------------
G|----------9------12--11--9---------------9--------------------------------------
D|--10--12-----10-------------12--10v--10-----10--12--9--9--10--9-----------------
A|-----------------------------------------------------------------12--10--10/12--
E|--------------------------------------------------------------------------------

Stave 10:

E|--------------------------------------------------------------------------------------------
B|--------------------------------------------------------------------------------------------
G|--7--5--4--5--5--5--4--------4--------------------------------------5--4-----------4--5--7--
D|-----------------------7--5-----7--5--4--7p5p4-------------------5--------7--5--7-----------
A|------------------------------------------------5--5\3-----7--7-----------------------------
E|--------------------------------------------------------------------------------------------

Stave 11:

E|-----------------------------------------------7----------------------7--7-------------------8--7------
B|-------------------------------------7--8--10-----10--10--8--8--7--7--------10--10--8--8--8--------10--
G|-------------------------------7--9--------------------------------------------------------------------
D|------------7---------7--8--9--------------------------------------------------------------------------
A|--7--9--10-----9--10-----------------------------------------------------------------------------------
E|-------------------------------------------------------------------------------------------------------

Stave 12:

E|-----------------------------------------------------------------------
B|--10--8--8--7--7--------------7-----------------5----------------------
G|------------------9--9--7--9-----9--7--5--5--7-----7--5--4-------------
D|------------------------------------------------------------7--5--5/7--
A|-----------------------------------------------------------------------
E|-----------------------------------------------------------------------

http://www.guitartabcreator.com
Guitar Tab Creator is intended to store guitar tab created through the tool. It currently does not support in-line text editing. Any text you place in here will be lost. If you need to comment on your tab, please use the "Tab Notes" section located below.