Sound will begin in 5 seconds

china cat july 17, 1989 ALPINE! part 2

01234567891011121314151617181920212223
E
B
G
D
A
E
B
0 1 2 3 4 5 6 7 8 9 10 11 12 13 14 15 16 17 18 19 20 21 22 23
Song Science #1: How Pros Use 6 Chords to Write Hit Songs
(/) Slide Up  (\) Slide Down  (h) Hammer On  (p) Pull Off  (b) Bend (r) Release (v) Vibrato

Stave 1:

E|--12------12--14--15--14--12---------14--12--------------15--14--12--------------12--14--15--14--12--
B|------15----------------------15-------------15--13------------------15--13--15----------------------
G|-----------------------------------------------------14----------------------------------------------
D|-----------------------------------------------------------------------------------------------------
A|-----------------------------------------------------------------------------------------------------
E|-----------------------------------------------------------------------------------------------------

Stave 2:

E|--------------12--14--15--14-----------------12--14--15--17--14--15--17--19--15--17--19--20--20--
B|--15--13--15------------------17p15--13--15------------------------------------------------------
G|-------------------------------------------------------------------------------------------------
D|-------------------------------------------------------------------------------------------------
A|-------------------------------------------------------------------------------------------------
E|-------------------------------------------------------------------------------------------------

Stave 3:

E|--20--20--19--17------17-------------------------------------------------------------------------------
B|------------------20------20--19--17--20--19p17------17------------------------------------------------
G|-------------------------------------------------19------19p17--17---------------------------------16--
D|--------------------------------------------------------------------19p17--16------16--17--18--19------
A|-------------------------------------------------------------------------------17----------------------
E|-------------------------------------------------------------------------------------------------------

Stave 4:

E|-----------------------------------------------------------------------------------------------
B|--------------------------17--20p19--17---------17---------------------------------------------
G|----------16--18------17-----------------19p17------19p18p17------17---------------------------
D|--17--19----------17------------------------------------------19------19p18p17------16---------
A|--------------------------------------------------------------------------------17------17\15--
E|-----------------------------------------------------------------------------------------------

Stave 5:

E|----------------------------------------------------------------------------------------------
B|----------------------------------------------------------------------------------------------
G|-------------------------------------------------------------------------------------------9--
D|--12------------------------------------------------------9----------9--10------9--10--12-----
A|------15--14--12--15--14--12--10--12--------10h12--10h12-----10--12---------12----------------
E|----------------------------------------------------------------------------------------------

Stave 6:

E|----------------------------------------------------------------------------------------8--------8--
B|--------------8--7----------------------------------------------------7--------7--8/10-----9h10-----
G|--9--9--7--9--------9--7----------------------------------------7--9-----7--9-----------------------
D|--------------------------10--9--7--5--7--9--7--9--10--7h9--10--------------------------------------
A|----------------------------------------------------------------------------------------------------
E|----------------------------------------------------------------------------------------------------

Stave 7:

E|--6-----5-----5----------------8--------8---------8------10--10--10p8----------8------
B|-----8-----6-----6b7-----8/10-----9h10-----9--10-----10----------------10--10-----10--
G|----------------------7---------------------------------------------------------------
D|--------------------------------------------------------------------------------------
A|--------------------------------------------------------------------------------------
E|--------------------------------------------------------------------------------------

Stave 8:

E|--7-------------10--------------------------------------------------------------------------
B|-----8h10--6/7----------------13---------13---------13---------13---------13------15p13h15--
G|-----------------------12/14------13h14------13h14------13h14------13h14------14------------
D|--------------------------------------------------------------------------------------------
A|--------------------------------------------------------------------------------------------
E|--------------------------------------------------------------------------------------------

Stave 9:

E|------------14------14--15--16--17--17p16p15p14--------------14----------14--15--14--------------
B|--17p15h17------17-------------------------------15--15--17------15--17--------------17--15--13--
G|-------------------------------------------------------------------------------------------------
D|-------------------------------------------------------------------------------------------------
A|-------------------------------------------------------------------------------------------------
E|-------------------------------------------------------------------------------------------------

Stave 10:

E|--12--------------------------------------------------------------------------------------------
B|------15--13--12--15--13--12------13p12p10------10--------------15--13--12------13--12----------
G|------------------------------14------------12------12--13--14--------------14----------14--12--
D|------------------------------------------------------------------------------------------------
A|------------------------------------------------------------------------------------------------
E|------------------------------------------------------------------------------------------------

Stave 11:

E|---------------------------------------------------------------------------------------------------
B|--12-----------------------------------------------------------------------------------------------
G|------14--12--11--14p12p11------11-----------------9--12--11--9------------------------------------
D|----------------------------12------12/10--10--12----------------12p10--10--------------9--10--12--
A|----------------------------------------------------------------------------12--10--12-------------
E|---------------------------------------------------------------------------------------------------

Stave 12:

E|-------------------------------------------------------------------------------------------------------
B|---------10------------------------10------10--12--13--10--12--13--13--12--13--15--17--15--17--15--17--
G|-------------9--11p9h11--12p11h12------12--------------------------------------------------------------
D|--10h12------------------------------------------------------------------------------------------------
A|-------------------------------------------------------------------------------------------------------
E|-------------------------------------------------------------------------------------------------------

Stave 13:

E|--14------14--15--14--15--16--17--16--17--19--17--17--19--19b21r19--17------17--19--19--17--
B|------17----------------------------------------------------------------19------------------
G|--------------------------------------------------------------------------------------------
D|--------------------------------------------------------------------------------------------
A|--------------------------------------------------------------------------------------------
E|--------------------------------------------------------------------------------------------

Stave 14:

E|--19b21--20--19--17------17--19--19b21r19--17------17--19--20--20p19p18p17------17--19--
B|---------------------19------------------------19---------------------------19----------
G|----------------------------------------------------------------------------------------
D|----------------------------------------------------------------------------------------
A|----------------------------------------------------------------------------------------
E|----------------------------------------------------------------------------------------

Stave 15:

E|--20p19p18p17------17--19--17--19b21--20p19p18p17------17--19--20p19p18p17------17--19--17--19--
B|---------------19----------------------------------19-----------------------19------------------
G|------------------------------------------------------------------------------------------------
D|------------------------------------------------------------------------------------------------
A|------------------------------------------------------------------------------------------------
E|------------------------------------------------------------------------------------------------

Stave 16:

E|--19b21--17--17-----------------------------------------------------------------------------------
B|-----------------19p18p17------17---------------------17--------------17----------17------20--19--
G|---------------------------19------19p17------17--19------19------19------17--19------19----------
D|------------------------------------------19------------------19----------------------------------
A|--------------------------------------------------------------------------------------------------
E|--------------------------------------------------------------------------------------------------

Stave 17:

E|-------------------------------------------------------------------------------------------------
B|------17----------17------------17-----------------13---------13---------13----------------------
G|--19------17--19------19p17h19------19--17--13h14------13h14------13h14------14--13--12--11------
D|---------------------------------------------------------------------------------------------12--
A|-------------------------------------------------------------------------------------------------
E|-------------------------------------------------------------------------------------------------

Stave 18:

E|------------------------------------------------------------------------------------------
B|-----------------------------------13---------13--15--13--13--13--13--15--13--12----------
G|------------11------11--12--13/14------13h14--------------------------------------14--14--
D|--12p11h12------12------------------------------------------------------------------------
A|------------------------------------------------------------------------------------------
E|------------------------------------------------------------------------------------------

http://www.guitartabcreator.com
Guitar Tab Creator is intended to store guitar tab created through the tool. It currently does not support in-line text editing. Any text you place in here will be lost. If you need to comment on your tab, please use the "Tab Notes" section located below.