Sound will begin in 5 seconds

china cat july 17, 1989 ALPINE!

01234567891011121314151617181920212223
E
B
G
D
A
E
B
0 1 2 3 4 5 6 7 8 9 10 11 12 13 14 15 16 17 18 19 20 21 22 23
Song Science #1: How Pros Use 6 Chords to Write Hit Songs
(/) Slide Up  (\) Slide Down  (h) Hammer On  (p) Pull Off  (b) Bend (r) Release (v) Vibrato

Stave 1:

E|------------------------------------------------------------------------------------------
B|------------------------------------------------------------------------------------------
G|----------------------------------4--------4--5--5--7--4--5--7--4--------4--5p4--5--5/7v--
D|--------------2--4--4--5p4--5--7-----5--7--------------------------5--7-------------------
A|--4--5--4--5------------------------------------------------------------------------------
E|------------------------------------------------------------------------------------------

Stave 2:

E|---------------7---------7--10--8------7-----------------------------------------------------
B|--8--7--8--10-----8--10------------10-----8--------8-----------------------------------------
G|---------------------------------------------9--7-----7h9p7--9--8--7-----7-----9-------------
D|----------------------------------------------------------------------9-----9-----8/7--5-----
A|------------------------------------------------------------------------------------------5--
E|---------------------------------------------------------------------------------------------

Stave 3:

E|------------------------------------------------------------------------------------------------
B|------------------------------------------------------------7-----7-----------------------------
G|-------------------------------------5--------7--7-------7-----7-----9\7--5-----5---------------
D|----------2--4--5--7--5--7--4--5--7-----6--7--------5/7----------------------7-----7p6p5--4-----
A|--3/5--5-------------------------------------------------------------------------------------5--
E|------------------------------------------------------------------------------------------------

Stave 4:

E|--------------------------------------------------8p7p6p5-----7--5--------5-----------------------
B|-----------------------------------------------------------8--------8--7-----8--7--5--8--7--5-----
G|--------------------------------------4--5--7--7-----------------------------------------------7--
D|--4--------4--5-----4--5--7--4--5--7--------------------------------------------------------------
A|-----5--7--------7--------------------------------------------------------------------------------
E|--------------------------------------------------------------------------------------------------

Stave 5:

E|---------------------------------------------------------------------------------------------
B|--7--5--------5--------------------------------------5--------5--7--------7--8-----7--8--10--
G|--------7--5-----7--5--4--7--5-----4--------4--5--7-----5--7--------7--9--------9------------
D|--------------------------------7-----5--7---------------------------------------------------
A|---------------------------------------------------------------------------------------------
E|---------------------------------------------------------------------------------------------

Stave 6:

E|----------------------------------7---------8--8--7------7---------------------------------
B|--10p9p8p7-----7--------7--8--10-----8--10-----------10-----10--8--7--10p8--7--------------
G|------------9-----7--9---------------------------------------------------------9--7--------
D|-------------------------------------------------------------------------------------9/10--
A|-------------------------------------------------------------------------------------------
E|-------------------------------------------------------------------------------------------

Stave 7:

E|-----------------------------------------------------------------------------------------------------
B|-----------------------------------------------------13---------13---------13---------13---------13--
G|-----------------------11--12p11h12--11--12--13--14------13h14------13h14------13h14------13h14------
D|--10/12--12p11h12--14--------------------------------------------------------------------------------
A|-----------------------------------------------------------------------------------------------------
E|-----------------------------------------------------------------------------------------------------

Stave 8:

E|-----------------------------------------------------------------------------------------------
B|-------------13---------13---------13------15--13---------13---------13---------13---------13--
G|--12--13/14------13/14------13/14------14----------13h14------13h14------13h14------13h14------
D|-----------------------------------------------------------------------------------------------
A|-----------------------------------------------------------------------------------------------
E|-----------------------------------------------------------------------------------------------

Stave 9:

E|-------------------------------------------------------------------------------------------
B|---------13---------13---------13---------13---------13------15--13---------13---------13--
G|--13h14------13h14------13h14------13h14------13h14------14----------13h14------13h14------
D|-------------------------------------------------------------------------------------------
A|-------------------------------------------------------------------------------------------
E|-------------------------------------------------------------------------------------------

Stave 10:

E|--------------------------------15--14--12-----------------
B|---------13---------13------13--------------15--13--13/15--
G|--13h14------13h14------14---------------------------------
D|-----------------------------------------------------------
A|-----------------------------------------------------------
E|-----------------------------------------------------------

http://www.guitartabcreator.com
Guitar Tab Creator is intended to store guitar tab created through the tool. It currently does not support in-line text editing. Any text you place in here will be lost. If you need to comment on your tab, please use the "Tab Notes" section located below.