Sound will begin in 5 seconds

china 6/26/74 intro part 2

01234567891011121314151617181920212223
E
B
G
D
A
E
B
0 1 2 3 4 5 6 7 8 9 10 11 12 13 14 15 16 17 18 19 20 21 22 23
Song Science #1: How Pros Use 6 Chords to Write Hit Songs
(/) Slide Up  (\) Slide Down  (h) Hammer On  (p) Pull Off  (b) Bend (r) Release (v) Vibrato

Stave 1:

E|-----10--7----------------------------------------------------------------------------------------6/7--
B|--8---------8--10--10--8--------8----------------------------------------------8--10p8-----8--10-------
G|--------------------------7--9-----9--7------10--9--7------7---------7--9--10-----------9--------------
D|-----------------------------------------10------------10-----9----------------------------------------
A|-----------------------------------------------------------------10------------------------------------
E|-------------------------------------------------------------------------------------------------------

Stave 2:

E|-------------------------------------------------------------------------------------------------
B|-----12\10p8h10--10p9p8--------------------------------------------------------------------------
G|--7----------------------9--10--10p9h10--10/12--12--12--11--10------10---------10----------------
D|----------------------------------------------------------------12------11h12------12--10\9------
A|---------------------------------------------------------------------------------------------10--
E|-------------------------------------------------------------------------------------------------

Stave 3:

E|----------------------------------------------------------------------------12--13--
B|--10------12--10----------------------12b14--12-----12--13--15--12--13--15----------
G|------12----------10------10------10------------------------------------------------
D|----------------------12------12----------------------------------------------------
A|------------------------------------------------------------------------------------
E|------------------------------------------------------------------------------------

Stave 4:

E|--12----------12------------------------------------------------------------------------15------15--
B|------15--13------15------12--13--12--13--15-----15/17--15--15--17--17--15--15--17--18------18------
G|----------------------14----------------------------------------------------------------------------
D|----------------------------------------------------------------------------------------------------
A|----------------------------------------------------------------------------------------------------
E|----------------------------------------------------------------------------------------------------

Stave 5:

E|--17/19--19--19-----19--19--19-----19--19--18b20--20r18--17--15------16--15------15---------15--
B|-----------------------------------------------------------------17----------17------16h17------
G|------------------------------------------------------------------------------------------------
D|------------------------------------------------------------------------------------------------
A|------------------------------------------------------------------------------------------------
E|------------------------------------------------------------------------------------------------

Stave 6:

E|--------------15---------15--17p15------17--17--16--15---------15---------15--------------
B|--17--16--15------18----------------18------------------16h17------18p17------18--15------
G|--------------------------------------------------------------------------------------17--
D|------------------------------------------------------------------------------------------
A|------------------------------------------------------------------------------------------
E|------------------------------------------------------------------------------------------

Stave 7:

E|--------------------------------------------------------------------12----------------------------------
B|--18--15--------------------------------------------13------13--15------13------13--15--13----------13--
G|----------17--17--15/16--------------16\14------14------14------------------12--------------12--14------
D|-------------------------17--15--17---------15----------------------------------------------------------
A|--------------------------------------------------------------------------------------------------------
E|--------------------------------------------------------------------------------------------------------

Stave 8:

E|------------------------------------------------------------------12--15--14--13----------12--
B|--------------------------------------------12h13-------------13------------------15--15------
G|----------------------12------12--14p12h14---------14-----14----------------------------------
D|--12--12--15--12--14------14------------------------------------------------------------------
A|----------------------------------------------------------------------------------------------
E|----------------------------------------------------------------------------------------------

Stave 9:

E|--------------------------------------------------------12----------12----------------------------------
B|--15--13--12--13p12-----------------------------12--13------15--15--------------13--12------------------
G|---------------------14---------------------14--------------------------12--14----------14--12------12--
D|-------------------------15--12-----12--15------------------------------------------------------12------
A|--------------------------------------------------------------------------------------------------------
E|--------------------------------------------------------------------------------------------------------

Stave 10:

E|-----------------------------------------------------------------------------------------------
B|---------------------------------------13--13--12----------12----------------------------------
G|-----------------------------------12--------------14--12------14--13--12--12--12----------12--
D|--15--15p14--14--14\12--10--12-----------------------------------------------------14--12------
A|-----------------------------------------------------------------------------------------------
E|-----------------------------------------------------------------------------------------------

Stave 11:

E|---------------------------------------------------------------------------------------------11/12------
B|-------------------------------------------------------------------12h13p12------12--13--15---------15--
G|------------------------------10--12-----10--12--14/16\14--12--14------------14-------------------------
D|--12--14--12--10--12--12--------------------------------------------------------------------------------
A|--------------------------10----------------------------------------------------------------------------
E|--------------------------------------------------------------------------------------------------------

Stave 12:

E|-----------------------------------------------------------------------------------------------
B|------13--12-------------15\12---------13p12--12--11------11---------12-----12--12--13p12------
G|--12----------14--12------------12/14-----------------13------12h13------------------------14--
D|-----------------------------------------------------------------------------------------------
A|-----------------------------------------------------------------------------------------------
E|-----------------------------------------------------------------------------------------------

Stave 13:

E|----------------------12--15--14--13v-----12h13p12------12----------12--15--14--13--13-----13p12h13--
B|--------------13--15--------------------------------15------13--15-----------------------------------
G|--12--14---------------------------------------------------------------------------------------------
D|----------15-----------------------------------------------------------------------------------------
A|-----------------------------------------------------------------------------------------------------
E|-----------------------------------------------------------------------------------------------------

Stave 14:

E|--13p12h13--13p12h13--13--12--13--13--12--13--13--12--13--13--12--13--13--12--13--13--12--13--
B|----------------------------------------------------------------------------------------------
G|----------------------------------------------------------------------------------------------
D|----------------------------------------------------------------------------------------------
A|----------------------------------------------------------------------------------------------
E|----------------------------------------------------------------------------------------------

Stave 15:

E|--13--13--12--13p12----------12------
B|---------------------15--13------15--
G|-------------------------------------
D|-------------------------------------
A|-------------------------------------
E|-------------------------------------

http://www.guitartabcreator.com
Guitar Tab Creator is intended to store guitar tab created through the tool. It currently does not support in-line text editing. Any text you place in here will be lost. If you need to comment on your tab, please use the "Tab Notes" section located below.