Sound will begin in 5 seconds

china 6/26/74 intro

01234567891011121314151617181920212223
E
B
G
D
A
E
B
0 1 2 3 4 5 6 7 8 9 10 11 12 13 14 15 16 17 18 19 20 21 22 23
Song Science #1: How Pros Use 6 Chords to Write Hit Songs
(/) Slide Up  (\) Slide Down  (h) Hammer On  (p) Pull Off  (b) Bend (r) Release (v) Vibrato

Stave 1:

E|---------------------------------------------------------10----------------------
B|---------------------------------------------10--12--13------13--12--------------
G|---------------------10------10------10--12--------------------------12--11--10--
D|------9--10--11--12------12------12----------------------------------------------
A|--10-----------------------------------------------------------------------------
E|---------------------------------------------------------------------------------

Stave 2:

E|------------------------------10--10----------12--12--10------10----------10--12--13/15--
B|------------------10--12--13----------13--12--------------13------12--13-----------------
G|--10------10--12-------------------------------------------------------------------------
D|------12---------------------------------------------------------------------------------
A|-----------------------------------------------------------------------------------------
E|-----------------------------------------------------------------------------------------

Stave 3:

E|------------12---------------------13--15p14p13------13p12----------------------12--------------
B|--15p13h15------15--13--12-----------------------15---------15--13--12--13--15------15--13--12--
G|----------------------------13/14---------------------------------------------------------------
D|------------------------------------------------------------------------------------------------
A|------------------------------------------------------------------------------------------------
E|------------------------------------------------------------------------------------------------

Stave 4:

E|-------------------------------------------------------------------------------
B|------12-------------------------------------------12------------------10------
G|--14------12--14------12-------------12--------14------14--12--10--12------10--
D|------------------15------15--10/12--------------------------------------------
A|-------------------------------------------------------------------------------
E|-------------------------------------------------------------------------------

Stave 5:

E|---------------------------------------------------------------------------------------------------
B|---------------------------------------------------------------------------------------------------
G|--10--9h10p9------9-----------------------------------------10------------9--10--------------------
D|--------------12-----12--9--10--9--9-----10----------9--12------------10---------12p10h12--10------
A|---------------------------------------------10--10-------------8--8---------------------------10--
E|---------------------------------------------------------------------------------------------------

Stave 6:

E|---------------------------------------------------------------------------------------------
B|------------------------------------------------------------------------------------7--------
G|-------------11--12p11-------------------------12--12--12------------------7--7--9-----7--7--
D|------9--12-------------14--12---------------------------------------7--9--------------------
A|--10--------------------------------13h14---------------------8--10--------------------------
E|--------------------------------15---------15------------------------------------------------

Stave 7:

E|------------------------------------------------------------------------------------------------------
B|----------------------------------------------------------------------------------------10p9p8-----8--
G|-----------------------------------------------------------------------------9--10--12----------9-----
D|--10--9----------9----------9---------7---------7-----------------9--10--12---------------------------
A|---------10--10-----10--12-----8--10-----8--10------------10--12--------------------------------------
E|---------------------------------------------------10-------------------------------------------------

Stave 8:

E|-------------------------------------------------------------------------------------------------------
B|-------------------------------------------------------------------------------------------------------
G|--7--10--7--9------7---------7-------------------------------2--5--4--2-----4--------2-----------4-----
D|---------------10-----9--10-----10p9------9--9------7--------------------5-----3--5-----------7-----7--
A|--------------------------------------10--------10--------------------------------------5--5-----------
E|-------------------------------------------------------------------------------------------------------

Stave 9:

E|----------------------------------------------------------------------------3--5p3--3--------10--7-----
B|-----------------------------------------3--6--5--4--3-----3-------3--5--6-------------5--6---------8--
G|-----5--4--------4--------------2--4--5-----------------5-----4h5--------------------------------------
D|--7--------5--7-----7--7--3--5-------------------------------------------------------------------------
A|-------------------------------------------------------------------------------------------------------
E|-------------------------------------------------------------------------------------------------------

http://www.guitartabcreator.com
Guitar Tab Creator is intended to store guitar tab created through the tool. It currently does not support in-line text editing. Any text you place in here will be lost. If you need to comment on your tab, please use the "Tab Notes" section located below.