Sound will begin in 5 seconds

cc rider

01234567891011121314151617181920212223
E
B
G
D
A
E
B
0 1 2 3 4 5 6 7 8 9 10 11 12 13 14 15 16 17 18 19 20 21 22 23
Song Science #1: How Pros Use 6 Chords to Write Hit Songs
(/) Slide Up  (\) Slide Down  (h) Hammer On  (p) Pull Off  (b) Bend (r) Release (v) Vibrato

Stave 1:

E|-------------------------------12-12----12-12-14-12-------------------14-12-
B|-12-10-12-10-10----10-10-12-14-------14-------------14-12-10----10-12-------
G|----------------11-------------------------------------------11-------------
D|----------------------------------------------------------------------------
A|----------------------------------------------------------------------------
E|----------------------------------------------------------------------------

Stave 2:

E|----------9----------0-0----------------------------14-14-------------------------------
B|-14-12-12---10-12-10-----14-12----------------------------13----13-15-17-15-13-13-13-13-
G|-------------------------------14-13-12-11----12-14----------14-------------------------
D|-------------------------------------------12-------------------------------------------
A|----------------------------------------------------------------------------------------
E|----------------------------------------------------------------------------------------

Stave 3:

E|-------
B|-14-12-
G|-------
D|-------
A|-------
E|-------

Stave 4:

E|----------------0-0--------------------8-9-5-0-0--------9-7-----------
B|-17-15-13----13-----10-9-8-----------------------8-9-10-----8-9-------
G|----------14---------------9-8-7-6------------------------------9-7-9-
D|-----------------------------------7-5--------------------------------
A|----------------------------------------------------------------------
E|----------------------------------------------------------------------

Stave 5:

E|---------------------------------0-0------------------------0-0---------------------------------
B|-8-15-15-17-17-15-13----13-15-------------10-14-12-10-12-10-----12-10-12-14-12-10----8-12----10-
G|---------------------14-------14-----9-11-----------------------------------------11------11----
D|------------------------------------------------------------------------------------------------
A|------------------------------------------------------------------------------------------------
E|------------------------------------------------------------------------------------------------

Stave 6:

E|----------------------14-12-12-------9----------------------0-0-------14-12-------------------
B|-10----10----10-12-14----------12-14---14-12-10----10-12-10-----12-14-------12-14-14-14-12-10-
G|----11----11------------------------------------11--------------------------------------------
D|----------------------------------------------------------------------------------------------
A|----------------------------------------------------------------------------------------------
E|----------------------------------------------------------------------------------------------

Stave 7:

E|-------------17-17---------------------------------------------20-17-------17----------------
B|----10-------------20-17-17---------------------17-19-17-15----------18-19----19-18----------
G|-12----12-18----------------19-17-17-18---------------------17----------------------19-17-19-
D|----------------------------------------19---19----------------------------------------------
A|---------------------------------------------------------------------------------------------
E|-------------------------------------------0-------------------------------------------------

Stave 8:

E|-------------------------0-0-14-17-15----------------------------------------------
B|--------------------------------------17-15-17-15-14----------17----19-17----------
G|-19-18-19-19-21-19-18--------------------------------15-16-18----19-------17-18----
D|----------------------19--------------------------------------------------------19-
A|-----------------------------------------------------------------------------------
E|-----------------------------------------------------------------------------------

Stave 9:

E|----------------0-0-------------------------0-0-15-17-15-12----------------17----------
B|-14-----------------15-17-15-14-15-14-15-17-----------------15-15-17-13-15-------------
G|----14-12-13------------------------------------------------------------------18-16-14-
D|-------------14------------------------------------------------------------------------
A|---------------------------------------------------------------------------------------
E|---------------------------------------------------------------------------------------

Stave 10:

E|---------------------------------------------
B|-------19-17-16-15-14-12-14-10-8-9-----------
G|-16-18-----------------------------9-7-5-6---
D|-------------------------------------------7-
A|---------------------------------------------
E|---------------------------------------------

http://www.guitartabcreator.com
Guitar Tab Creator is intended to store guitar tab created through the tool. It currently does not support in-line text editing. Any text you place in here will be lost. If you need to comment on your tab, please use the "Tab Notes" section located below.