Sound will begin in 5 seconds

black peter 10 29 77part 3

01234567891011121314151617181920212223
E
B
G
D
A
E
B
0 1 2 3 4 5 6 7 8 9 10 11 12 13 14 15 16 17 18 19 20 21 22 23
Song Science #1: How Pros Use 6 Chords to Write Hit Songs
(/) Slide Up  (\) Slide Down  (h) Hammer On  (p) Pull Off  (b) Bend (r) Release (v) Vibrato

Stave 1:

E|-----------------------------------------------------------------------------------------------
B|-----------------------------------------------------------12--10------------------------------
G|--12b14r12--11--12--10/11----------12--10/11---------9/11----------11--10--9--7-----7-------7--
D|---------------------------12--12-------------12---------------------------------9-----8h9-----
A|-----------------------------------------------------------------------------------------------
E|-----------------------------------------------------------------------------------------------

Stave 2:

E|-----------------------------------------------------------------------------------------17--19--
B|---------------------------7-----------10-------------13------15---------15--17--19--20----------
G|--10--9--7--------------7--------9/11------11/14--14------14------13/14--------------------------
D|------------9--7--9--7---------------------------------------------------------------------------
A|-------------------------------------------------------------------------------------------------
E|-------------------------------------------------------------------------------------------------

Stave 3:

E|--17--19--20\19--17---------17-----------------------------------------------------15----------------
B|---------------------18/19------18/19-------------18/19------19--19/20--19--18b20------18b20r18------
G|---------------------------------------19-----19---------19--------------------------------------19--
D|-----------------------------------------------------------------------------------------------------
A|-----------------------------------------------------------------------------------------------------
E|-----------------------------------------------------------------------------------------------------

Stave 4:

E|---------17------17--16------16--15------15--13/14----------------------------------------------
B|--18/20------19----------18----------17-------------15----------15--17b19--17--15--17------15v--
G|--------------------------------------------------------14--16-------------------------16-------
D|------------------------------------------------------------------------------------------------
A|------------------------------------------------------------------------------------------------
E|------------------------------------------------------------------------------------------------

Stave 5:

E|------17----------16----------15------------------------------------------------------------
B|--19------19--18------18--17------17------15-----15--------------15\0-----------10--10--10--
G|--------------------------------------14-------------16--14--14-----------9/11--------------
D|--------------------------------------------------------------------------------------------
A|--------------------------------------------------------------------------------------------
E|--------------------------------------------------------------------------------------------

Stave 6:

E|----------------------------------10------------9--------------------------------
B|---------10----------------------------------------------------------------------
G|--10/11------11\10---------10/11------11--9/10-----10--9v--10/11------10/11------
D|--------------------12--------------------------------------------12---------12--
A|---------------------------------------------------------------------------------
E|---------------------------------------------------------------------------------

Stave 7:

E|---------------------------10-----------------------------------------------------------------
B|--------10---------------------13------10--------------------------------------------------7--
G|--9b11------11r9--7--9/11----------12------10h11------11----------10----------9---------7-----
D|-------------------------------------------------------------------------------------7--------
A|--------------------------------------------------12------12--11------11--10-----10-----------
E|----------------------------------------------------------------------------------------------

Stave 8:

E|----------------12b14--12--10--------------------------------------------------------------
B|--------10--10-----------------13/15--15p14p13------13----------12----------12-------------
G|--9/11------------------------------------------14------14--13------13--13------13--12-----
D|-------------------------------------------------------------------------------------------
A|-------------------------------------------------------------------------------------------
E|-------------------------------------------------------------------------------------------

Stave 9:

E|--------------------------------------------------------------------------------------------------------
B|--11------11--------------------------------------------------------------------------------------------
G|------12------12--12\0--10/11--11-------------------------------------------------------------------12--
D|-----------------------------------12--12p10h12--12--------12--12p10----------------------------12------
A|----------------------------------------------------------------------12--11--10\9------12--12----------
E|------------------------------------------------------------------------------------10------------------

Stave 10:

E|--------------------10--12--14-----14--15--16--17--14--15--16--17--14--15--16--17--17p16p15p14--14--
B|----------------------------------------------------------------------------------------------------
G|--10h11------10/11----------------------------------------------------------------------------------
D|---------12-----------------------------------------------------------------------------------------
A|----------------------------------------------------------------------------------------------------
E|----------------------------------------------------------------------------------------------------

Stave 11:

E|-----------------------------------------------------------------------------------------------17--19--
B|--17b19-----17b19r17b19r17--15--15------15--17--17b19--17b19--17b19r17--15------15--15--18/19----------
G|------------------------------------16--------------------------------------16-------------------------
D|-------------------------------------------------------------------------------------------------------
A|-------------------------------------------------------------------------------------------------------
E|-------------------------------------------------------------------------------------------------------

Stave 12:

E|--13/14--------------------------------10-------------10--12b14r12--10------12b14r12--10------10--10--
B|---------15--12--15--15---------10h12----------10h12--------------------12----------------12----------
G|----------------------------11-------------11---------------------------------------------------------
D|------------------------------------------------------------------------------------------------------
A|------------------------------------------------------------------------------------------------------
E|------------------------------------------------------------------------------------------------------

Stave 13:

E|-------------10-----------------------------------------------------------------------------------
B|---------10------13--10------12--10---------------------------------------------------------------
G|--12b14------------------12----------12--10------10h11--------------------------------------------
D|---------------------------------------------12---------12--11--10------9--10------9--10--11------
A|--------------------------------------------------------------------12---------12-------------12--
E|--------------------------------------------------------------------------------------------------

http://www.guitartabcreator.com
Guitar Tab Creator is intended to store guitar tab created through the tool. It currently does not support in-line text editing. Any text you place in here will be lost. If you need to comment on your tab, please use the "Tab Notes" section located below.