Sound will begin in 5 seconds

black peter 10 29 77part 2

01234567891011121314151617181920212223
E
B
G
D
A
E
B
0 1 2 3 4 5 6 7 8 9 10 11 12 13 14 15 16 17 18 19 20 21 22 23
Song Science #1: How Pros Use 6 Chords to Write Hit Songs
(/) Slide Up  (\) Slide Down  (h) Hammer On  (p) Pull Off  (b) Bend (r) Release (v) Vibrato

Stave 1:

E|--10----------------10----------------10-----------------------15--13/14----------------------------
B|------13b15r13--10------13b15r13--10--------------------------------------15------------------------
G|------------------------------------------14\12--10/11------------------------14\12--10/11--11--12--
D|--------------------------------------------------------12------------------------------------------
A|----------------------------------------------------------------------------------------------------
E|----------------------------------------------------------------------------------------------------

Stave 2:

E|-----------------------5----------------------------------8---------------------------5-------
B|------------------6b8-----8r6--------------7--8--9--9/10-----9/10--10\8--6b8-----6b8-----8r6--
G|--10/11------------------------7p5-----7v-----------------------------------------------------
D|---------12\0-----------------------7---------------------------------------------------------
A|----------------------------------------------------------------------------------------------
E|----------------------------------------------------------------------------------------------

Stave 3:

E|--------------10----------------------13/14------14--15p14--15b17--13/14--14-----
B|------------------13b15r13b15-----15---------15-------------------------------15\
G|--7--6--7/11---------------------------------------------------------------------
D|---------------------------------------------------------------------------------
A|---------------------------------------------------------------------------------
E|---------------------------------------------------------------------------------

Stave 4:

E|--------10--8------------------------------------------------------------
B|--8b10---------10--9--8--6-----6h7---------------------------------7-----
G|----------------------------7-------7--6--5---------------------------7--
D|---------------------------------------------7--6--5\4-----4--5/7--------
A|--------------------------------------------------------5----------------
E|-------------------------------------------------------------------------

Stave 5:

E|--------5--8--5--------------------------------------------------10--10---------10----------10------10--
B|--8b10-----------8b10--10--10r8p6-----6/7--8--6/7------------10----------13b15------13--10------10------
G|-----------------------------------7---------------7-----11---------------------------------------------
D|--------------------------------------------------------------------------------------------------------
A|--------------------------------------------------------------------------------------------------------
E|--------------------------------------------------------------------------------------------------------

Stave 6:

E|------10---------10------10------10------10-----10------10v-----10--13/14----------14--15/17--
B|--10---------10------10------10------13-------------13---------------------15--15-------------
G|----------------------------------------------------------------------------------------------
D|----------------------------------------------------------------------------------------------
A|----------------------------------------------------------------------------------------------
E|----------------------------------------------------------------------------------------------

Stave 7:

E|--14--15b17r15--14----------------17------17------19b21--19--17--16--15--13--14--15--13/14-------------
B|--------------------15-----15/19------19------19--------------------------------------------15---------
G|------------------------------------------------------------------------------------------------14\12--
D|-------------------------------------------------------------------------------------------------------
A|-------------------------------------------------------------------------------------------------------
E|-------------------------------------------------------------------------------------------------------

Stave 8:

E|--12-------------10---------------------
B|---------------------13-----------------
G|------12--10/11----------12--10/11------
D|------------------------------------12--
A|----------------------------------------
E|----------------------------------------

http://www.guitartabcreator.com
Guitar Tab Creator is intended to store guitar tab created through the tool. It currently does not support in-line text editing. Any text you place in here will be lost. If you need to comment on your tab, please use the "Tab Notes" section located below.