Sound will begin in 5 seconds

black peter 10 29 77

01234567891011121314151617181920212223
E
B
G
D
A
E
B
0 1 2 3 4 5 6 7 8 9 10 11 12 13 14 15 16 17 18 19 20 21 22 23
Song Science #1: How Pros Use 6 Chords to Write Hit Songs
(/) Slide Up  (\) Slide Down  (h) Hammer On  (p) Pull Off  (b) Bend (r) Release (v) Vibrato

Stave 1:

E|-----------------------------------------------------------------------------------------------
B|-----------------15--17--17b19r17--15------15--13/15--15v-----10-------------------------------
G|---------14--16------------------------16-------------------------12--10h11----------------11--
D|--15/16----------------------------------------------------------------------------------------
A|-----------------------------------------------------------------------------12--10\9----------
E|---------------------------------------------------------------------------------------10------

Stave 2:

E|---------------------------------------------------------10--10h12--10------------15--17---------
B|-----------------------------10------10----------10--12--------------------17b19----------17b19--
G|------11------11------10/11------12------11------------------------------------------------------
D|----------12------12-------------------------12--------------------------------------------------
A|--12---------------------------------------------------------------------------------------------
E|-------------------------------------------------------------------------------------------------

Stave 3:

E|---------------------------------------------------14----------------10-----------------
B|--17b19--17--15--13--15--15b17r15--15--15v-------------------------------13-------------
G|--------------------------------------------13/14------14\12--10/11----------10/11------
D|------------------------------------------------------------------------------------12--
A|----------------------------------------------------------------------------------------
E|----------------------------------------------------------------------------------------

Stave 4:

E|-----------------10---------14----------17b19--17--14--15--16--17--13/14------------------12--
B|--------------------------------15v---------------------------------------15------------------
G|---------11----------12/14----------------------------------------------------14--13--12------
D|-------------12-------------------------------------------------------------------------------
A|--11h12---------------------------------------------------------------------------------------
E|----------------------------------------------------------------------------------------------

Stave 5:

E|---------10-------------------------------------------------------------------
B|-------------13--10-----------------------------------------------------------
G|--10/11--------------12--10h11----------------------------------------11------
D|--------------------------------12--11--10--------------------------------12--
A|--------------------------------------------12--11--10\9------12--12----------
E|----------------------------------------------------------10------------------

Stave 6:

E|----------------------------------------------------------------------------------------------13/14--
B|------10------10-----------------------------------13h15--15p13------15--13b15--13b15r13--10---------
G|--11------12------12--10h11--12--10h11--11-----------------------14----------------------------------
D|--------------------------------------------12-------------------------------------------------------
A|-----------------------------------------------------------------------------------------------------
E|-----------------------------------------------------------------------------------------------------

http://www.guitartabcreator.com
Guitar Tab Creator is intended to store guitar tab created through the tool. It currently does not support in-line text editing. Any text you place in here will be lost. If you need to comment on your tab, please use the "Tab Notes" section located below.