Sound will begin in 5 seconds

bird song philly spectrum 10 18 89

01234567891011121314151617181920212223
E
B
G
D
A
E
B
0 1 2 3 4 5 6 7 8 9 10 11 12 13 14 15 16 17 18 19 20 21 22 23
Song Science #1: How Pros Use 6 Chords to Write Hit Songs
(/) Slide Up  (\) Slide Down  (h) Hammer On  (p) Pull Off  (b) Bend (r) Release (v) Vibrato

Stave 1:

E|------------------------------------------------------------------------
B|------------------------------------------------------------------------
G|-------------2--1-------------------------------------------------------
D|----------2--------4-------4--------------------------------------------
A|--2h4--5--------------5p4-----5p4--5--5p4--2-----4-----------2--4--0/2--
E|----------------------------------------------------5-----5-------------

Stave 2:

E|--------------------------------7--------------------------------------------------------
B|--7h9-----7--7--9p8p7-----7--8-----10--9--7-----7--------7--9--10p9p7-----------7--------
G|-----------------------9---------------------9-----7--9----------------9--7--9-----9--7--
D|-----------------------------------------------------------------------------------------
A|-----------------------------------------------------------------------------------------
E|-----------------------------------------------------------------------------------------

Stave 3:

E|-----------------------------------------------------------------------------
B|-----------------------------------------------------------------------------
G|-----6-----------6-------------------------------6---------------------------
D|--9-----9--7--9-----9--7--7p6-----6--------6--7-----9--6-----6h7p6-----------
A|-------------------------------9-----7--9-----------------9---------9--7--5--
E|-----------------------------------------------------------------------------

Stave 4:

E|-------------------------------------------------------------------------12--14--15p14------12--
B|-----------------------------------------------15p14p12------12--14--15-----------------15------
G|---------------------------------------------------------14-------------------------------------
D|--------4--6--7--6--4--6--4--------6------------------------------------------------------------
A|--5--7-----------------------5--7---------------------------------------------------------------
E|------------------------------------------------------------------------------------------------

Stave 5:

E|--14--14-----17p15p14----------14--14-------------------------------------------16--
B|-----------------------15--17----------17p15p14------14--15--14-------------15------
G|-------------------------------------------------16--------------16p14--16----------
D|------------------------------------------------------------------------------------
A|------------------------------------------------------------------------------------
E|------------------------------------------------------------------------------------

Stave 6:

E|-------------------------------------------------------------------------------------
B|--17--15p14--------------------------------------------------------------------------
G|-------------16--14--13------13--14--16p14p13h14------13---------------------11------
D|-------------------------14-----------------------14------14p12------12--14----------
A|-----------------------------------------------------------------14--------------14--
E|-------------------------------------------------------------------------------------

Stave 7:

E|--------------------------------------------------------------------------------------------------
B|--------------------------------------------------------------------------------------------------
G|----------11--14--13------11----------11----------------------------------11--14--13--11----------
D|------12--------------14------12--14------12------11----------11--12--14------------------14--12--
A|--14------------------------------------------14------12--14--------------------------------------
E|--------------------------------------------------------------------------------------------------

Stave 8:

E|----------------------------------------------------------------------------------------------
B|----------------------------------------------------------------------------------------------
G|----------------------------------------------------------------------------------------------
D|--11--------------11--12--14--12p11h12------11------11--12p11------11-------------------------
A|------14--12--14------------------------14------14-------------14------12--12/14--14--14--14--
E|----------------------------------------------------------------------------------------------

Stave 9:

E|--
B|--
G|--
D|--
A|--
E|--

http://www.guitartabcreator.com
Guitar Tab Creator is intended to store guitar tab created through the tool. It currently does not support in-line text editing. Any text you place in here will be lost. If you need to comment on your tab, please use the "Tab Notes" section located below.