Sound will begin in 5 seconds

big river 5/9/77 solo 2 part 2

01234567891011121314151617181920212223
E
B
G
D
A
E
B
0 1 2 3 4 5 6 7 8 9 10 11 12 13 14 15 16 17 18 19 20 21 22 23
Song Science #1: How Pros Use 6 Chords to Write Hit Songs
(/) Slide Up  (\) Slide Down  (h) Hammer On  (p) Pull Off  (b) Bend (r) Release (v) Vibrato

Stave 1:

E|---------12------------------------------------------------------------------------------------
B|--12b14------14r12--10------10-----8-----8--9--10-----10--9--8----------8----------------------
G|------------------------11------9-----9-------------------------9--8h9-----9--8--7--5h6--6-----
D|--------------------------------------------------------------------------------------------7--
A|-----------------------------------------------------------------------------------------------
E|-----------------------------------------------------------------------------------------------

Stave 2:

E|-----------------------------------------8/9-------------------------------------------------
B|----------------------------8-----8--10-------10-----8--10p8-----8---------------------------
G|----------7-----7--8--9--------9------------------9-----------9-----9\7--9\7--5-----5h6------
D|--7--7/9-----9-------------------------------------------------------------------7-------7v--
A|---------------------------------------------------------------------------------------------
E|---------------------------------------------------------------------------------------------

Stave 3:

E|----------------------------------------------------------------------5------------
B|----------------10-----8/9---------------------------------------------------------
G|--------6--7/9------9-------9--8--7--6-----6---------------------4/6-----8p7p5-----
D|--7--7----------------------------------7-----7--5--7--5h7p5--------------------7--
A|--------------------------------------------------------------7--------------------
E|-----------------------------------------------------------------------------------

Stave 4:

E|--------5---------------5----------------------------15------------------------------------------
B|-----5---------------5------------------------15b17------17r15--13------13b14--14r12--10--9--10--
G|--6--------8p7p5-----------8p7p5------------------------------------14---------------------------
D|------------------7---------------7--7-----------------------------------------------------------
A|-------------------------------------------------------------------------------------------------
E|-------------------------------------------------------------------------------------------------

Stave 5:

E|-----------------11--11--12v---------------15---------15-------------------------
B|--10p9---------------------------17p16h17------16b18------18r16--14--17--14------
G|--------9--9/11--------------------------------------------------------------14--
D|---------------------------------------------------------------------------------
A|---------------------------------------------------------------------------------
E|---------------------------------------------------------------------------------

Stave 6:

E|---------------------------------------------------------------------------------------------------
B|---------10------13--10---------10--------------------14-------------------------------------------
G|--10/11------11----------11b13------13r11---------------------------------------------------9--11--
D|-------------------------------------------12--12/14------14--13--10/12--10--10------10/11---------
A|---------------------------------------------------------------------------------12----------------
E|---------------------------------------------------------------------------------------------------

Stave 7:

E|----------------------------------5--------------------------------------------------------------------
B|-----10------------------------5-----------------------------------------------------------------------
G|--9---------7b9--9--9--9r7--6-----------7b9r7--5----------------------------------------------------9--
D|--------------------------------------------------7--7--7p5-----5--5--7p5-----7/9--9p7-----7--8--9-----
A|-------------------------------------------------------------7-------------7------------9--------------
E|-------------------------------------------------------------------------------------------------------

Stave 8:

E|-------------------------------------------------------------------------------------5-----
B|--------9-------10-----10-------10--------8--9--10--------------------------------------5--
G|-----9-----7/9-------------8/9------9--9---------------7/9--7--5-----------8p7p5-----------
D|--9---------------------------------------------------------------7--7------------7--------
A|-------------------------------------------------------------------------------------------
E|-------------------------------------------------------------------------------------------

Stave 9:

E|-------------------------------------------------
B|-------------------------------------------------
G|--8p7p5-----5/6----------2-----------------------
D|---------7-------------------------5-------------
A|--------------------3/4-----7p6h7--------3h4-----
E|--------------------------------------5-------5--

http://www.guitartabcreator.com
Guitar Tab Creator is intended to store guitar tab created through the tool. It currently does not support in-line text editing. Any text you place in here will be lost. If you need to comment on your tab, please use the "Tab Notes" section located below.