Sound will begin in 5 seconds

big river 5/9/77 solo 2

01234567891011121314151617181920212223
E
B
G
D
A
E
B
0 1 2 3 4 5 6 7 8 9 10 11 12 13 14 15 16 17 18 19 20 21 22 23
Song Science #1: How Pros Use 6 Chords to Write Hit Songs
(/) Slide Up  (\) Slide Down  (h) Hammer On  (p) Pull Off  (b) Bend (r) Release (v) Vibrato

Stave 1:

E|--8--7--5------------------------------------------------------------------------------------
B|-----------8--6/7--5-------------------------------------------------------------------------
G|----------------------8--7p5--------5/6v-----------------------------------------------------
D|------------------------------7--7--------6h7---------------------------------------------5--
A|-----------------------------------------------7--6--5--4--3/4--4---------3h4-----4--5/7-----
E|-------------------------------------------------------------------5p4h5-------5-------------

Stave 2:

E|-----------------------------------------------------------------------------------------
B|-------------------------------------------------------------------8---------8-----8--8--
G|-----------------------5-----5h6v-----6-------8-----8--9v-----8h9-----9---------9--------
D|-------5h7p5-----5--7-----7--------7-----7/9-----9-----------------------10--------------
A|--6h7---------7--------------------------------------------------------------------------
E|-----------------------------------------------------------------------------------------

Stave 3:

E|----------------------------------5------------------------------
B|--8--8\0-----------------------------8--8--5---------------------
G|-------------8/9--9\7--5-----7b9--------------7p5-----5h6--------
D|--------------------------7------------------------7-------5--7--
A|-----------------------------------------------------------------
E|-----------------------------------------------------------------

Stave 4:

E|--------------------------------------------------------------------------------------------------------
B|--------------------------------------------------------------------------------------------------------
G|----------------------5h6--5----------------------------------------------------------------------------
D|-------------5--6--7----------7--7p6p5-------5-------7--5--5--5-----7--6--5-------5---------------------
A|--3/4--6--7-----------------------------6h7-----6h7--------------------------6h7-----7--7\5--3--5p3-----
E|-----------------------------------------------------------------------------------------------------5--

Stave 5:

E|-------------------------------------------------------------------------------------------
B|--------------------------------------------------------------7--------7--7-------8-----5--
G|----------------------------------------5h6----------------7--------7--------7/8-----5-----
D|----------------------6/7--5--7--7p5h7-------7p5-----5--7--------7-------------------------
A|-------5-----6--7---------------------------------7----------------------------------------
E|--5/7-----7--------------------------------------------------------------------------------

Stave 6:

E|-------------5----------------------------------------------------9-----9------------------------------
B|----------5-------------8--------------------------------------------------8---------------------------
G|--5/6--6--------8/9--9-----9\7--5-----------9\7--5b6---------6/9-----9--------7p5-----5h6--------------
D|-----------------------------------7--5--7------------7p6h7------------------------7-------7-----5--7--
A|----------------------------------------------------------------------------------------------7--------
E|-------------------------------------------------------------------------------------------------------

Stave 7:

E|--------------------------------------------------------------------------------------------------------
B|------------------------8------------------------------------8-----8--9--10--8--9--10-------------------
G|-----------5h6--6--7/9-----9p7-----7h8--8--8-----7--8--9--------9----------------------7--8--9--5h6-----
D|-----5--7-----------------------9-------------9------------------------------------------------------7--
A|--7-----------------------------------------------------------------------------------------------------
E|--------------------------------------------------------------------------------------------------------

Stave 8:

E|----------------------------------------------------------------------------------------------
B|------------------------------------------------------------------------10--8-----8--------8--
G|--6--7--7p6h7--7b9r7--5-----5/6------------------------------------------------9--------6-----
D|-------------------------7-------7p5-----5---------5--7--7--7--7--7------------------7--------
A|--------------------------------------7-----7p5h7---------------------------------------------
E|----------------------------------------------------------------------------------------------

Stave 9:

E|------------------------------------------------------12------------------------9------------------9--
B|--8-----8--9--10--10p9p8-----8-------8--10-----12b14------14r12--10-----10--12-----12--12--11--10-----
G|-----9--------------------9-----8h9-------------------------------------------------------------------
D|------------------------------------------------------------------------------------------------------
A|------------------------------------------------------------------------------------------------------
E|------------------------------------------------------------------------------------------------------

Stave 10:

E|------9--10--12-----16b18--17------------15--14------14----------12-----------------------------------
B|--12---------------------------17p16h17----------15------13--13---------14r12--10------10---------10--
G|-----------------------------------------------------------------------------------11------10/12------
D|------------------------------------------------------------------------------------------------------
A|------------------------------------------------------------------------------------------------------
E|------------------------------------------------------------------------------------------------------

Stave 11:

E|---------------------------------
B|--10p8-----8---------------------
G|--------9-----9\7--5h6-----------
D|------------------------7--5--7--
A|---------------------------------
E|---------------------------------

http://www.guitartabcreator.com
Guitar Tab Creator is intended to store guitar tab created through the tool. It currently does not support in-line text editing. Any text you place in here will be lost. If you need to comment on your tab, please use the "Tab Notes" section located below.