Sound will begin in 5 seconds

big river 5/9/77 intro solo

01234567891011121314151617181920212223
E
B
G
D
A
E
B
0 1 2 3 4 5 6 7 8 9 10 11 12 13 14 15 16 17 18 19 20 21 22 23
Song Science #1: How Pros Use 6 Chords to Write Hit Songs
(/) Slide Up  (\) Slide Down  (h) Hammer On  (p) Pull Off  (b) Bend (r) Release (v) Vibrato

Stave 1:

E|---------------------------------------------------0------------------------------------
B|----------------------------------------------1/2---------------------------------------
G|----------2--2--2p0-------0-------------2--2-------------2--2--2p0----------0-----------
D|---------------------1/2-----0--------------------------------------2--0h2-----2--1--2--
A|-------0------------------------3b2--0--------------------------------------------------
E|--3b2-----------------------------------------------------------------------------------

Stave 2:

E|-----------------------0---------------------------------------------------------------------------
B|---------------3--1/2----------------------------------------3--2----------5-----------------------
G|-------0--1/2----------------1h2p1--0-----------0-------1/2-----------4/6--------------------------
D|--0h2----------------------------------2--1--2-----2p0-----------------------------5--7---------5--
A|------------------------------------------------------------------------------6/7--------7p6h7-----
E|---------------------------------------------------------------------------------------------------

Stave 3:

E|------------------------------------------------------------------
B|------------------------------------3--1--1/2-----------4/5--4/5--
G|-----0--2----------0-------0--1--2-------------2-----2------------
D|--2--------2p0--2-----1h2-------------------------2---------------
A|------------------------------------------------------------------
E|------------------------------------------------------------------

Stave 4:

E|--------------------------------------------------5---------------------------------------------------
B|------------------------------------------------------------------------------------------------------
G|--2--2--0h2p0---------0-------------------2--2/6------------------------------------------------------
D|---------------2p0h2-----2-----------------------------------------------------5-------7--------------
A|----------------------------3--3b2--0--0-------------3-----3--3--3-----3--5/7-----6h7-----7--5--3-----
E|--------------------------------------------------------5-----------5------------------------------5--

Stave 5:

E|----------------5--
B|-------------------
G|-----------5/6-----
D|--7--5--7----------
A|-------------------
E|-------------------

http://www.guitartabcreator.com
Guitar Tab Creator is intended to store guitar tab created through the tool. It currently does not support in-line text editing. Any text you place in here will be lost. If you need to comment on your tab, please use the "Tab Notes" section located below.