Sound will begin in 5 seconds

Big blues Jim Hall solo

01234567891011121314151617181920212223
E
B
G
D
A
E
B
0 1 2 3 4 5 6 7 8 9 10 11 12 13 14 15 16 17 18 19 20 21 22 23
Song Science #1: How Pros Use 6 Chords to Write Hit Songs
(/) Slide Up  (\) Slide Down  (h) Hammer On  (p) Pull Off  (b) Bend (r) Release (v) Vibrato

Stave 1:

E|--16------13------9---------------------------------------------------------------------------------
B|------18------14-----12--12--9--9--11---------------------------------------------------------------
G|-------------------------------------------10--------13---------------------------------------------
D|---------------------------------------12--------------------10--11/13------10----------13--14------
A|---------------------------------------------------------11-------------11----------15----------15--
E|--------------------------------------------------------------------------------13------------------

Stave 2:

E|-----------------------------------------------------------------------------------------------------
B|-----------------------------------------------------------------------------------------------------
G|-----------------------------------------------------------------------------------------------------
D|--10------10--10------10------------------------6-----------8b9r8--6-----6--8--8-----6--8/10-----10--
A|------13----------13------10/11----------10--------8--6--8------------8-----------8-----------8------
E|---------------------------------13--13--------------------------------------------------------------

Stave 3:

E|-------------------------------------------------------------------------------------------------
B|----------------------------------------------6-----6------------------6p5--6--6--5--4-----------
G|--------10--------10-----------------------------8-----5--8-----------------------------7--6--5--
D|--8/10------8/10------10\8--6--------------------------------5h6h7-------------------------------
A|-------------------------------8p6h8--4/5--------------------------------------------------------
E|-------------------------------------------------------------------------------------------------

Stave 4:

E|------------------------------------------------------------------------------------------------
B|------------------------------------------------------------------------------------------------
G|--4--3--3-----3-----------------------------8-----8--8------8--7--6-----6--5--4-----4--2--1--0--
D|-----------6-----3--6--------3--3--1-----------7--------10-----------9-----------7--------------
A|-----------------------3--6---------------------------------------------------------------------
E|------------------------------------------------------------------------------------------------

Stave 5:

E|-----------------------------------------------------------------------------------------------------
B|-----------------------------------------------------------------------------------------------------
G|-----------------------------5-----------------------6--5-------------------8--8------8--8------8\7--
D|--4--2--------------------6--------8--6-----------7--------6/7-----------8--------10--------10-------
A|--------4--5--6--------5--------5--------5-----6----------------8-----7------------------------------
E|-----------------------------------------------------------------------------------------------------

Stave 6:

E|---------------------------------------------------------------------------------
B|--------------------------7p6p5p4p3-----6p5p4p3----------------8---------8-------
G|--6-------------------------------------------------8------10-----8---------8\7--
D|-----9p8p7p6-----6-------------------------------------10------------10----------
A|--------------3-----5------------------------------------------------------------
E|---------------------------------------------------------------------------------

Stave 7:

E|--
B|--
G|--
D|--
A|--
E|--

Stave 8:

E|------------------------------------------------------------------------6-----6------------------
B|-----6--8--------6------------------------------------------------6--9-----9-----9--8--7--6p5p4--
G|--7--------7-------------------------------5--5--------------7/8---------------------------------
D|--------------8-----8\6--5h6p5--6-----5/6-----------------8--------------------------------------
A|-------------------------------------------------7/8--10-----------------------------------------
E|-------------------------------------------------------------------------------------------------

Stave 9:

E|----------------------------------------------------------------------------11--13/
B|--3p2p1p0-----------1---------------------------9--------11--12--13p12--13---------
G|-----------3--1--------------------------8--10-----8-------------------------------
D|-----------------3--------8--10--10------------------------------------------------
A|-------------------------------------11--------------------------------------------
E|-----------------------------------------------------------------------------------

Stave 10:

E|--11--13---------11------------------------------------------------------2/3-----
B|----------12/13---------13------11---------9--------7-----5--------4----------6--
G|----------------------------13----------------------------------5-----5----------
D|------------------------------------10--------8--------6-----4-------------------
A|---------------------------------------------------------------------------------
E|---------------------------------------------------------------------------------

Stave 11:

E|-----------------9--9---------------------------------------------------------------
B|--8------11--11--------11/12------12b14r12-----11-------------9---------------------
G|-----10-----------------------10-------------------13-----10-----10p9p8-------------
D|-------------------------------------------------------------------------10---------
A|-----------------------------------------------------------------------------11--8--
E|------------------------------------------------------------------------------------

Stave 12:

E|---------------------------------------------------------------------------------13------13--13--
B|----------------------------------------------------------------------11--13/15------15----------
G|-------------8------8--8------8-----------------------------------12-----------------------------
D|---------10-----10--------10--------10--8--10--8-------------------------------------------------
A|--8p6h8-------------------------------------------10/11--8---------------------------------------
E|-------------------------------------------------------------------------------------------------

Stave 13:

E|------13------13-------------13--13--13--13--13------------13-----------------------------
B|--15------15------15--13b15----------------------13b15---------13b15--11------------------
G|--------------------------------------------------------------------------13--10--13--10--
D|------------------------------------------------------------------------------------------
A|------------------------------------------------------------------------------------------
E|------------------------------------------------------------------------------------------

Stave 14:

E|-------------13---------11--------8-------6-------5-------3--------------------------------------
B|----------------------------------------------------------------6-------4-------3----------------
G|------13/14------14\12------12\9-----9\7-----7\5-----5\3-----------------------------------3-----
D|--15---------------------------------------------------------------7\5-----5\3-----3\1-----------
A|----------------------------------------------------------------------------------------3-----3--
E|-------------------------------------------------------------------------------------------------

http://www.guitartabcreator.com
Guitar Tab Creator is intended to store guitar tab created through the tool. It currently does not support in-line text editing. Any text you place in here will be lost. If you need to comment on your tab, please use the "Tab Notes" section located below.