Sound will begin in 5 seconds

bathtub gin e center 7/10/99

01234567891011121314151617181920212223
E
B
G
D
A
E
B
0 1 2 3 4 5 6 7 8 9 10 11 12 13 14 15 16 17 18 19 20 21 22 23
Song Science #1: How Pros Use 6 Chords to Write Hit Songs
(/) Slide Up  (\) Slide Down  (h) Hammer On  (p) Pull Off  (b) Bend (r) Release (v) Vibrato

Stave 1:

E|-------------5--6p5--6--5----------------------------------------------------------
B|-------8--8---------------------6--8--6-----5--6p5---------------------------------
G|--3/5----------------------8\7----------------------8--6--8--9--8--8/9-------------
D|------------------------------------------------------------------------10--8------
A|-------------------------------------------------------------------------------10--
E|-----------------------------------------------------------------------------------

Stave 2:

E|----------------------------------------------------------------------------------------------
B|----------------------------------------------------------------------------------------------
G|-------------------------------------------------------------------6/7--5-----5--7--8--9--10--
D|--------7--8p7--8--7-------------------------------------------------------7------------------
A|--9h10-------------------7--8--10--8--7-----6--7--8--6h7--------------------------------------
E|----------------------8------------------8----------------8--8--------------------------------

Stave 3:

E|----------------------------------------------------------------------------------------------------
B|----------------------------------------------------------------------------------------------------
G|--8h9---------------------------------------------9--10--12--10-----9------8--9--10--8h9------7-----
D|-------10------10---------10------12------12---------------------8-----10-----------------10-----8--
A|-----------10------10---------10------10------10----------------------------------------------------
E|----------------------------------------------------------------------------------------------------

Stave 4:

E|-------------------------------------------------------------------
B|-------------------------------------------------------------------
G|---------------------------------------------------------------5v--
D|------8--7------------------------------------------6/7--5--5------
A|--10--------10--10-----10--10--8--7--8--8--------------------------
E|-------------------------------------------6--6--------------------

Stave 5:

E|----------------------------------------------------------------------------------------
B|------10--11--10--11--10----------------------------------------------------------------
G|--12----------------------9--10--12--9--10--8h9-----------------------------------------
D|-------------------------------------------------10--8--10---------7--8--10--10/12--10--
A|---------------------------------------------------------------10-----------------------
E|----------------------------------------------------------------------------------------

Stave 6:

E|--------------------------------------------------------------------------------------
B|--------------------------------------------------------8-----8--8--10--11p10h11--10--
G|-----------------------------------------------------------9--------------------------
D|----------------------------------------10--10--10v-----------------------------------
A|--10--12--13--12--10--8--7-----7-----7------------------------------------------------
E|----------------------------8-----8---------------------------------------------------

Stave 7:

E|------------------------------------------------------------------------------------
B|------------------------------------------------------------------------------------
G|--9--10--12--10--9------9--10--8h9--------------------------------------------------
D|--------------------10--------------10v-----10--10--12--12----------------------12--
A|------------------------------------------------------------10------10--12--13------
E|----------------------------------------------------------------12------------------

Stave 8:

E|--------------------------------------------------------------------------------------------------------
B|--------------------------------------------------------------------------------------------------------
G|--------------------------------------------------------------------------------------------------------
D|--11/12-------------------------12------12------------------12------12----------------------------------
A|---------10---------10--12--13------10------10--10--12--13------10------10------10--12--13--13--12--10--
E|-------------11/12----------------------------------------------------------12--------------------------

Stave 9:

E|--------------------------------------------------------------------------------------------------------
B|--------------------------------------------------------------------------------------------------------
G|-----------------------------------------------------------------------------------------------5--7--5--
D|-----------------------------------------------------------------------------7--5-----5--7--8-----------
A|------10--12--13--12------------------10-----10--7---------7--8--8--7--------------7--------------------
E|--12------------------12--13--12--13----------------8--10--------------8--3-----------------------------

Stave 10:

E|-----------5--6--5-----6--5--------------------------------------------------------------
B|--8-----8--------------------5--6--8--6-----6--6--5h6--5--4h5--6--4h5--------------------
G|-----5-----------------------------------------------------------------5--3\2/3\2--------
D|-----------------------------------------------------------------------------------5--5--
A|-----------------------------------------------------------------------------------------
E|-----------------------------------------------------------------------------------------

http://www.guitartabcreator.com
Guitar Tab Creator is intended to store guitar tab created through the tool. It currently does not support in-line text editing. Any text you place in here will be lost. If you need to comment on your tab, please use the "Tab Notes" section located below.