Sound will begin in 5 seconds

althea 3 28 81 end solo part 2

01234567891011121314151617181920212223
E
B
G
D
A
E
B
0 1 2 3 4 5 6 7 8 9 10 11 12 13 14 15 16 17 18 19 20 21 22 23
Song Science #1: How Pros Use 6 Chords to Write Hit Songs
(/) Slide Up  (\) Slide Down  (h) Hammer On  (p) Pull Off  (b) Bend (r) Release (v) Vibrato

Stave 1:

E|---------------------12------12---------12--------------------------------------------
B|---------15------14------14------13h14-------------12--12---------------------15------
G|-------------16-----------------------------12/13--------------13-----------------16--
D|--14/16----------------------------------------------------14------14--14/16----------
A|--------------------------------------------------------------------------------------
E|--------------------------------------------------------------------------------------

Stave 2:

E|--14----------------------------------------16b18--17--15/16-----------------------------
B|------15----------15p14h15--17--14--15--17--------------------17------17--17-----17--18--
G|----------16--16--------------------------------------------------16---------------------
D|-----------------------------------------------------------------------------------------
A|-----------------------------------------------------------------------------------------
E|-----------------------------------------------------------------------------------------

Stave 3:

E|---------19--17--19p18p17--19--17b19r17--16------16b17----------16b18-----18r16--14----------
B|--18/19--------------------------------------17---------17--15-----------------------17--16--
G|---------------------------------------------------------------------------------------------
D|---------------------------------------------------------------------------------------------
A|---------------------------------------------------------------------------------------------
E|---------------------------------------------------------------------------------------------

Stave 4:

E|---------19--18b19r18--17--17--16--16------------------15------14-------------12--------------
B|--17/19--------------------------------17-----------------------------------------14------12--
G|-------------------------------------------16--15--15------14------12--12h13----------14------
D|----------------------------------------------------------------------------------------------
A|----------------------------------------------------------------------------------------------
E|----------------------------------------------------------------------------------------------

Stave 5:

E|---------10----------------------------------------------------------------------------------
B|--11b13------13r11--10--10--12b14-----14--12---------12--------------------------14----------
G|----------------------------------------------12h13------13------------------14------14------
D|-------------------------------------------------------------14--14--14--14--------------14--
A|---------------------------------------------------------------------------------------------
E|---------------------------------------------------------------------------------------------

Stave 6:

E|-----------------------------------------------------------
B|--12--10---------------------------------------------------
G|----------11---------------------------13------------------
D|--------------12-----14--12p11-------------14--12--14--14--
A|--------------------------------12/14----------------------
E|-----------------------------------------------------------

http://www.guitartabcreator.com
Guitar Tab Creator is intended to store guitar tab created through the tool. It currently does not support in-line text editing. Any text you place in here will be lost. If you need to comment on your tab, please use the "Tab Notes" section located below.