Sound will begin in 5 seconds

althea 3 28 81 end solo

01234567891011121314151617181920212223
E
B
G
D
A
E
B
0 1 2 3 4 5 6 7 8 9 10 11 12 13 14 15 16 17 18 19 20 21 22 23
Song Science #1: How Pros Use 6 Chords to Write Hit Songs
(/) Slide Up  (\) Slide Down  (h) Hammer On  (p) Pull Off  (b) Bend (r) Release (v) Vibrato

Stave 1:

E|----------------------------------------------------------------------------------------------------
B|-------------------3--------5--------5--5-----------5--------5-----------------------------7--------
G|----------------------4--------6-----------6-----------4--------7--6--------------------7-----7-----
D|----------------4--------4--------7-----------7--6--------6-----------7--------7--8--9-----------9--
A|-------0--1--2-----------------------------------------------------------7--9-----------------------
E|--3/4-----------------------------------------------------------------------------------------------

Stave 2:

E|--------------------------------------------------------------------------------------------------
B|-----5--------------5--5--------------5-----5-----------7-----------------------9-----5--------5--
G|--------6-----6-----------4-----4--------------------7-----7-----9-----9-----9-----7--------6-----
D|--7--------7-----7-----------6-----6-----6--------9-----------9-----9-----9--------------7--------
A|--------------------------------------------------------------------------------------------------
E|--------------------------------------------------------------------------------------------------

Stave 3:

E|------------------------------------------------------------------------------------
B|--------7--------------5--------------9-----9----------------12----------12/14------
G|-----7-----7--------6-----6--------9-----9---------------11----------11---------14--
D|--9-----------9--7-----------7--9--------------------12----------12-----------------
A|------------------------------------------------------------------------------------
E|------------------------------------------------------------------------------------

Stave 4:

E|------------------------------------------------------------------------------------------------
B|----------14h15--------------14--------------12----------14----------14-------------16----------
G|------14-----------------14--------------13----------14----------14-------------14------14------
D|--14-------------16--14----------14--14----------14----------14----------14/16--------------16--
A|------------------------------------------------------------------------------------------------
E|------------------------------------------------------------------------------------------------

Stave 5:

E|------------------------------------------------------------------------------------------
B|----------15------17----------14h15--------------14--12--------------------12-------------
G|--------------16----------14---------16------14----------14p13------13h14------14p13------
D|--14--16--------------14-----------------14---------------------14--------------------14--
A|------------------------------------------------------------------------------------------
E|------------------------------------------------------------------------------------------

Stave 6:

E|--------------------------------------------------------------------------------------------------
B|---------16--16--16------------------14h15--------------14--15p14------12-----------------12------
G|---------------------14----------14-----------------14-------------16------13------13h14------14--
D|--14/16------------------14--14-------------16--14-----------------------------14-----------------
A|--------------------------------------------------------------------------------------------------
E|--------------------------------------------------------------------------------------------------

Stave 7:

E|-------------------------------------------------------------------------------------
B|--12-----------------------15----------------------14h15--------------14-------------
G|------14p13---------14/16------16--14----------14-----------------14------16p14------
D|-------------14------------------------14--14-------------16--14-----------------14--
A|-------------------------------------------------------------------------------------
E|-------------------------------------------------------------------------------------

Stave 8:

E|--------------------------------------------------------------------------------------------------------
B|-------------12------12------11---------12--------------12-------------15-----15----------17p16p15------
G|------13h14------13------14------12/13--------------13----------13/16-------------16----------------16--
D|--14----------------------------------------14--14----------14------------------------16----------------
A|--------------------------------------------------------------------------------------------------------
E|--------------------------------------------------------------------------------------------------------

Stave 9:

E|---------19--17--16------16--17--19p18p17p16--------------14----------12---------12-----------------
B|--17/19--------------17-----------------------17--15----------15----------13b15------15r13----------
G|------------------------------------------------------16----------16------------------------14--12--
D|----------------------------------------------------------------------------------------------------
A|----------------------------------------------------------------------------------------------------
E|----------------------------------------------------------------------------------------------------

Stave 10:

E|---------12---------------------------------------------------------------------------------
B|-------------14p13p12------12--12---------12--------------------------------15--------------
G|--12/13----------------13----------12h13----------13-----------------14/16------16--14------
D|------------------------------------------------------14--12----------------------------16--
A|----------------------------------------------14--------------14----------------------------
E|--------------------------------------------------------------------------------------------

Stave 11:

E|-------------------------------------------------------------------------------------------------12--
B|------------------------------------------------12------14--14b16r14--12--12-----10--11--12--12------
G|--14--16--12b13------------------12b13--------------14-----------------------------------------------
D|-----------------14--12-----------------14--14-------------------------------------------------------
A|-------------------------14--14----------------------------------------------------------------------
E|-----------------------------------------------------------------------------------------------------

Stave 12:

E|--10h12p10--10----------------7---------------------------------------------------------
B|----------------10--12--8b10-----10r8-------------------------------------------10--10--
G|---------------------------------------9--7--9-----7--9-----7--7------------------------
D|---------------------------------------------------------9--------9--9p7--9/11----------
A|----------------------------------------------------------------------------------------
E|----------------------------------------------------------------------------------------

Stave 13:

E|-------------------------------------------------------------------------------------------------
B|--------------------------------10--10------------------------12----------10-----------------14--
G|--11b13r11--9-----------------------------------------11--------------11------11---------14------
D|---------------11--7--9/11--11-------------11--11/12------12------12--------------12/14----------
A|-------------------------------------------------------------------------------------------------
E|-------------------------------------------------------------------------------------------------

Stave 14:

E|---------12--------------------------------------------------------
B|--------------------12----------------12---------12----------------
G|--12/13------14b16------16r14p12----------14b16------16r14p12------
D|----------------------------------14---------------------------14--
A|-------------------------------------------------------------------
E|-------------------------------------------------------------------

http://www.guitartabcreator.com
Guitar Tab Creator is intended to store guitar tab created through the tool. It currently does not support in-line text editing. Any text you place in here will be lost. If you need to comment on your tab, please use the "Tab Notes" section located below.