Sound will begin in 5 seconds

all blues mix number 3

01234567891011121314151617181920212223
E
B
G
D
A
E
B
0 1 2 3 4 5 6 7 8 9 10 11 12 13 14 15 16 17 18 19 20 21 22 23
Song Science #1: How Pros Use 6 Chords to Write Hit Songs
(/) Slide Up  (\) Slide Down  (h) Hammer On  (p) Pull Off  (b) Bend (r) Release (v) Vibrato

Stave 1:

E|-----------------------------------------------------------------------------------------
B|---------11b12--11b12-----11--10p8--------8--8------------11p10--11p10----------------8--
G|--9--12-----------------------------9--7-----------9--12----------------12--10\9--10-----
D|-----------------------------------------------------------------------------------------
A|-----------------------------------------------------------------------------------------
E|-----------------------------------------------------------------------------------------

Stave 2:

E|-----------------------------------------------------------------------------8/10--8------8--
B|----------------------------------------------------------------------8--10-----------10-----
G|--10\9--7----------------------------------------------------7--9/10-------------------------
D|-----------8/9-------------------------------------7--8--10----------------------------------
A|----------------10------8--10-----8h10p8--7--8/10--------------------------------------------
E|--------------------10-----------------------------------------------------------------------

Stave 3:

E|-----------------------------------------------------------------------------------------------
B|--11\10------10--------------------------------------------------------------------------------
G|---------12------12--10--12--10--------------------10------------------------------------------
D|---------------------------------12--12-----11h12------12--10--12--10--8/9------9--10--11--12--
A|----------------------------------------------------------------------------10-----------------
E|-----------------------------------------------------------------------------------------------

Stave 4:

E|-------------------------------------------------------------------------------------------
B|----------------------------------------------------------------------------------------5--
G|--10-------------------7-----4--5--7--8\7--5--7--5-----5--8-----5--7--8--7-----4--5--7-----
D|------12\10--8------------7-------------------------7--------7--------------7--------------
A|----------------10-------------------------------------------------------------------------
E|-------------------------------------------------------------------------------------------

Stave 5:

E|---------------------------------------------------------------------------------
B|---------------------------------------------------------------------6-----6--8--
G|--7--5--3-----------------------------------3-----3--5p3h5--7--5--7-----7--------
D|-----------5--3--------------------3h5p3h5-----5---------------------------------
A|-----------------5--4--3--1------------------------------------------------------
E|-----------------------------3---------------------------------------------------

http://www.guitartabcreator.com
Guitar Tab Creator is intended to store guitar tab created through the tool. It currently does not support in-line text editing. Any text you place in here will be lost. If you need to comment on your tab, please use the "Tab Notes" section located below.