Sound will begin in 5 seconds

all blues mix 4

01234567891011121314151617181920212223
E
B
G
D
A
E
B
0 1 2 3 4 5 6 7 8 9 10 11 12 13 14 15 16 17 18 19 20 21 22 23
Song Science #1: How Pros Use 6 Chords to Write Hit Songs
(/) Slide Up  (\) Slide Down  (h) Hammer On  (p) Pull Off  (b) Bend (r) Release (v) Vibrato

Stave 1:

E|--------------------------------------------------3-------------------------------------------------
B|-----6-----3-----------------------------------------6--3-----6--3----------------------------3-----
G|--5-----5-----3h4------------------------------------------5--------5--3-----5--3-----3--4/5-----5--
D|-------------------5-------------3----------------------------------------5--------5----------------
A|----------------------5--3--1/2--------1--3/5-------------------------------------------------------
E|------------------------------------3---------------------------------------------------------------

Stave 2:

E|--------------------------------------------------------------------------------------------------
B|------------------------------------------------------------6-------------------------------------
G|--3/4--------------------3-----------3--2/3--5--3--5--6--7-----6h7--7\5--3--5p3-----3-------3--5--
D|-------5-----------3--5-----5-----5----------------------------------------------5-----4h5--------
A|----------5-----5---------------------------------------------------------------------------------
E|--------------------------------------------------------------------------------------------------

Stave 3:

E|------------------------------------------------------------------------------------------------
B|--4/5--4/5--4/5----------------------------------------6-----6-------6--8--7--6-----------------
G|-----------------5--3-----------------------------5/7-----7-----6h7--------------7\5--3h5p3-----
D|-----------------------5--3--1/2--1/2--------4/5---------------------------------------------5--
A|---------------------------------------3--------------------------------------------------------
E|------------------------------------------3-----------------------------------------------------

Stave 4:

E|--------------------------------------------------------------------------------------
B|-------------------------------------------------------6--8-----6-------6--8----------
G|--5p3-----3/4--3/4--3/4----------------------5/7--6h7--------7-----6h7--------7--7/8--
D|-------5-----------------5p3-----3--5-------------------------------------------------
A|------------------------------5-------------------------------------------------------
E|--------------------------------------------------------------------------------------

Stave 5:

E|----------------------------------------------------------------------
B|--7/8--7/8--7/8----------6-----6b8--6b8--6----------------------------
G|-----------------8p7--------7---------------7--6--5--3b4--------------
D|----------------------------------------------------------5--5--5--5--
A|----------------------------------------------------------------------
E|----------------------------------------------------------------------

http://www.guitartabcreator.com
Guitar Tab Creator is intended to store guitar tab created through the tool. It currently does not support in-line text editing. Any text you place in here will be lost. If you need to comment on your tab, please use the "Tab Notes" section located below.