Sound will begin in 5 seconds

all blues mix

01234567891011121314151617181920212223
E
B
G
D
A
E
B
0 1 2 3 4 5 6 7 8 9 10 11 12 13 14 15 16 17 18 19 20 21 22 23
Song Science #1: How Pros Use 6 Chords to Write Hit Songs
(/) Slide Up  (\) Slide Down  (h) Hammer On  (p) Pull Off  (b) Bend (r) Release (v) Vibrato

Stave 1:

E|-----------------13----------------------------------------------------------------------------
B|------11--13/15------15--13\11------11/12------------------------------------------------------
G|--12----------------------------12---------12---------------10---------10----------------------
D|-----------------------------------------------12--10--8/9------10/12------12--10--8/9---------
A|----------------------------------------------------------------------------------------10--8--
E|-----------------------------------------------------------------------------------------------

Stave 2:

E|---------10---------------------------------------------------------------------------------------------
B|--11h12------13--11/12----------------------------------------------------------------------------------
G|------------------------12p10------10---------10--12--11--10--------------------------------------------
D|-------------------------------12------11h12------------------12\10--8h10p8------8--------8------8--10--
A|-----------------------------------------------------------------------------10-----9h10-----10---------
E|--------------------------------------------------------------------------------------------------------

Stave 3:

E|---------------------------------------6-----5-----------------------------------------------------
B|------------------------------------------8-----6--8--6--7/8--7/8--6-----6-------6-----------------
G|----------------------------------------------------------------------7-----6h7-----7--6--5--3-----
D|--10p8------8--10/12\10--8--10------------------------------------------------------------------5--
A|--------10----------------------10-----------------------------------------------------------------
E|---------------------------------------------------------------------------------------------------

Stave 4:

E|---------------------------------------------------------------------------------------------
B|----------------------------3-------------------------3--4--4b5---------------------------8--
G|-------------------------2-----5\4--2--4-----2--4--5-------------5--6--7--5-------5----------
D|--3-----3--5----------4-------------------5----------------------------------6h7-----7/9-----
A|-----5-----------4/5-------------------------------------------------------------------------
E|---------------------------------------------------------------------------------------------

Stave 5:

E|-------------------
B|--6----------------
G|-----7\5--3--3-----
D|----------------5--
A|-------------------
E|-------------------

Stave 6:

E|-------------------------------------------------------------------------------------------------------
B|-----6-----3-------------------------------------------------------------------------------------------
G|--5-----5-----3/4--------------------------------------------------3h5p3--------3h5p3h5--3-----3-------
D|-------------------5-------------3-------3----------------------5---------5--5--------------5-----5p3--
A|----------------------5--3--1/2-----3/5-----5--3--1/2--------------------------------------------------
E|-------------------------------------------------------3--1--------------------------------------------

Stave 7:

E|--------------------------------------------------------------------------------------------------------
B|---------------------------------------------6-----6-------6--8--7--6-----------------------------------
G|----------------------3-----3--3--------5/7-----7-----6h7--------------7\5--3h5p3-----5p3-----3/4--3/4--
D|---------3--5p4h5--------5--------5------------------------------------------------5-------5------------
A|--5p4h5-------------------------------------------------------------------------------------------------
E|--------------------------------------------------------------------------------------------------------

Stave 8:

E|----------------6/8--6-----5-----------------------------------------------------------------
B|------------------------8-----6--8--6-----5--------------------------------------------------
G|---------------------------------------7-----7--5--7--5--------5-----5-----------------------
D|--5p3-----3----------------------------------------------8--5-----8-----8--5--8--5--6--5--4--
A|-------5-------------------------------------------------------------------------------------
E|---------------------------------------------------------------------------------------------

Stave 9:

E|-------------------------------------------------
B|-------------------------------------------------
G|-------------------------------------------------
D|--3--4--5----------3--------------------------3--
A|-----------3--4/5-----4/5--5--3--1h2-----3/5-----
E|--------------------------------------3----------

http://www.guitartabcreator.com
Guitar Tab Creator is intended to store guitar tab created through the tool. It currently does not support in-line text editing. Any text you place in here will be lost. If you need to comment on your tab, please use the "Tab Notes" section located below.