Sound will begin in 5 seconds

all blues kenny burrell chorus 2 1:59

01234567891011121314151617181920212223
E
B
G
D
A
E
B
0 1 2 3 4 5 6 7 8 9 10 11 12 13 14 15 16 17 18 19 20 21 22 23
Song Science #1: How Pros Use 6 Chords to Write Hit Songs
(/) Slide Up  (\) Slide Down  (h) Hammer On  (p) Pull Off  (b) Bend (r) Release (v) Vibrato

Stave 1:

E|---------------------------------------------------------------------------------------------
B|--------------11b12-----11--11p10p8--------8--8------------11p10h11p10-----------------------
G|--10--10--12-------------------------9--7-----------9--12---------------12--10---------9b10--
D|--------------------------------------------------------------------------------13\12--------
A|---------------------------------------------------------------------------------------------
E|---------------------------------------------------------------------------------------------

Stave 2:

E|-------------------------------------------------------------------------3--5--8/10--8------8--
B|-----------------------------------------------------------------3--5/6-----------------10-----
G|--10--7------------7-------------------------------------2/3--5--------------------------------
D|---------10p8---------5-----5--5-----3--5--3--2/3--5--5----------------------------------------
A|---------------10--------8---------------------------------------------------------------------
E|-----------------------------------------------------------------------------------------------

Stave 3:

E|--------------------------------------------------------------------------------------------
B|--11\10------10-----------------------------------------------------------------------------
G|---------12------12--10--12--10-----------------10------------------------------------------
D|---------------------------------12--12--11h12------12--10--12--10--8/9------9--10--11--12--
A|-------------------------------------------------------------------------10-----------------
E|--------------------------------------------------------------------------------------------

Stave 4:

E|--------------------------------------------------------------------------------------------------
B|--------------------------------------------------------------------------------------------------
G|--10----------------------------------------------------------------------------------------------
D|------12\10--8-----------12-----12------9--10--12--13\12--10--12--10------10--13------10--11--13--
A|----------------10p8h10-------------12--------------------------------12----------12--------------
E|--------------------------------------------------------------------------------------------------

Stave 5:

E|---------------------------------------------------------------------------------------------
B|---------------------------------------------------------------------------------------------
G|---------------------9------------------------------------------------3-----3--5p3h5--7p5h7--
D|--12------9--10--12-----12--10--8---------------------------3--5p3h5-----5-------------------
A|------12---------------------------10--8--5--4--3--1-----------------------------------------
E|------------------------------------------------------3--------------------------------------

Stave 6:

E|--------------6-------------9------10------9------10--
B|--6--8--6--8------------10-----11------10-----11------
G|--------------------12--------------------------------
D|------------------------------------------------------
A|------------------------------------------------------
E|------------------------------------------------------

http://www.guitartabcreator.com
Guitar Tab Creator is intended to store guitar tab created through the tool. It currently does not support in-line text editing. Any text you place in here will be lost. If you need to comment on your tab, please use the "Tab Notes" section located below.