Sound will begin in 5 seconds

All Blues Jim Hall

01234567891011121314151617181920212223
E
B
G
D
A
E
B
0 1 2 3 4 5 6 7 8 9 10 11 12 13 14 15 16 17 18 19 20 21 22 23
Song Science #1: How Pros Use 6 Chords to Write Hit Songs
(/) Slide Up  (\) Slide Down  (h) Hammer On  (p) Pull Off  (b) Bend (r) Release (v) Vibrato

Stave 1:

E|------------13-------------------------------------------------------------------------------
B|--13b15r13-------------------14------------11------------------------------------------------
G|-------------------15b16r15------12b13r12--------------------10------------------------------
D|-----------------------------------------------12-----11/12------8b9------8b9--8b9-----------
A|----------------------------------------------------------------------10------------10p8h10--
E|---------------------------------------------------------------------------------------------

Stave 2:

E|---------13-------------------------------------------------------------------------------
B|--15\14-------------14------------14---------------------------------------------3--------
G|-------------14/15--------------------16/17--15--------------------------2/3--5-----3-----
D|------------------------13/14--------------------13/14----------------5----------------5--
A|--------------------------------------------------------14--------------------------------
E|------------------------------------------------------------14----------------------------

Stave 3:

E|----------------------------------------------------------------------------
B|---------------------------------------6---------------------------------8--
G|--5---------------------------3-----5--------7-----5--3h4--------3b4--------
D|-----3--5------------------5-----5--------8-----5----------5--5-------5-----
A|-----------2/3-----2/3------------------------------------------------------
E|----------------------------------------------------------------------------

Stave 4:

E|------------------------------------------------------------------------------
B|-----6-----6-----5-----5--3-----------------11------11\10---------------------
G|-----------------------------3/4--------10------10---------12--12p10----------
D|--7-----7-----5-----5-------------5-----------------------------------11------
A|--------------------------------------------------------------------------12--
E|------------------------------------------------------------------------------

Stave 5:

E|---------15-----15---------12-----------------------------------------------------------------------
B|--15/17----------------------------------14------11-------------------------------------------------
G|--------------------14/15------11/12-----------------------6p5p3-----5------------------------------
D|---------------------------------------------11------8------------5-----3h5-----------8------8------
A|-----------------------------------------------------------------------------3--5--8-----10-----10--
E|----------------------------------------------------------------------------------------------------

Stave 6:

E|--
B|--
G|--
D|--
A|--
E|--

http://www.guitartabcreator.com
Guitar Tab Creator is intended to store guitar tab created through the tool. It currently does not support in-line text editing. Any text you place in here will be lost. If you need to comment on your tab, please use the "Tab Notes" section located below.