Sound will begin in 5 seconds

All Blues 6/4/74 part 3 - starts at 7:58

01234567891011121314151617181920212223
E
B
G
D
A
E
B
0 1 2 3 4 5 6 7 8 9 10 11 12 13 14 15 16 17 18 19 20 21 22 23
Song Science #1: How Pros Use 6 Chords to Write Hit Songs
(/) Slide Up  (\) Slide Down  (h) Hammer On  (p) Pull Off  (b) Bend (r) Release (v) Vibrato

Stave 1:

E|------------------------------------------------------------------------------------
B|--15---------18------18--18---------18------18------20---------18-------------------
G|------16/19------19-------------19------19------19---------17------15b16------------
D|--------------------------------------------------------------------------17p15h17--
A|------------------------------------------------------------------------------------
E|------------------------------------------------------------------------------------

Stave 2:

E|-------------15------------------15/15--------------------------------------------15----------15--
B|---------15------------------13---------15-------------13------13--11/12------12----------12------
G|--15/16------------------14-----------------16-----12------12-------------12----------12----------
D|-----------------17--17---------------------------------------------------------------------------
A|--------------------------------------------------------------------------------------------------
E|--------------------------------------------------------------------------------------------------

Stave 3:

E|----------15---------------------10--------------------13--10--------------------------------
B|------12---------------------11------13b15---------13----------13p11------13------11--11b12--
G|--12----------12--10-----12--------------------12---------------------12------12-------------
D|---------------------------------------------------------------------------------------------
A|---------------------------------------------------------------------------------------------
E|---------------------------------------------------------------------------------------------

Stave 4:

E|------15-----------------------------------------------------------------------------------------------
B|--14------18b20--18--15--------------------------------------------------------------------------------
G|-------------------------17p15--19\17--15------17--15------15/16---------------------------------------
D|-------------------------------------------17----------17---------15-----------------------------------
A|----------------------------------------------------------------------17--15--15--13/14--13/14--13/14--
E|-------------------------------------------------------------------------------------------------------

Stave 5:

E|------------------------18------------------------------------17--14--14-----18--15--------------15--
B|----------------------------19\20--19-----------------15--18-------------------------16------16------
G|---------------------------------------19--16-----17-------------------------------------18----------
D|-----------------------------------------------------------------------------------------------------
A|-----------------------------------------------------------------------------------------------------
E|--15--15--15--15\13----------------------------------------------------------------------------------

Stave 6:

E|--18p17p16p15--17--15--14--------------------------------------------15------------------
B|---------------------------15--17b19--19r17--15--------------15--17------18------15------
G|-------------------------------------------------17--15----------------------17------15--
D|---------------------------------------------------------17------------------------------
A|-----------------------------------------------------------------------------------------
E|-----------------------------------------------------------------------------------------

Stave 7:

E|------------------------------------------------------------
B|------------------------------------------------------------
G|------------------------------------------------------------
D|--17--15----------------------------------------------------
A|----------17--15--13h15--15--15--15p13------13--------------
E|----------------------------------------15------15--15--15--

Stave 8:

E|-------------------------------------------------------------------------------------------
B|-------------------------------4-------------------6-----------6---------------------------
G|-----------3-----------2--4/5-----5--3--------5/7-----7--5--7-----7--6--5--3b4--3b4--------
D|-----3--5-----5-----5-------------------5--------------------------------------------5--3--
A|--5----------------------------------------------------------------------------------------
E|-------------------------------------------------------------------------------------------

Stave 9:

E|-------------------------------------------------------------------------------------------------
B|----------------------------6-------------------------------------4/5--4/5--4/5------------------
G|-----3--2/3--5--3--5--6--7-----6h7--7\5--3--5p3-----3-------3--5-----------------5--3------------
D|--5----------------------------------------------5-----4h5-----------------------------5--3--1v--
A|-------------------------------------------------------------------------------------------------
E|-------------------------------------------------------------------------------------------------

Stave 10:

E|---------------7--7-----------------------------------------------------
B|------------6--------------5/6--------6---------------------------------
G|-------6/7--------------6-------7--------7\5--3--5--5p4p3-----3/4--3/4--
D|--4/5----------------5-------------6-----------------------5------------
A|------------------------------------------------------------------------
E|------------------------------------------------------------------------

Stave 11:

E|----------------------------------------------------------------------------------------------
B|------------6--8-----6-------6--8----------7/8--7/8--7/8----------6-----6b8--6b8--6-----------
G|--5/7--6h7--------7-----6h7--------7--7/8-----------------8p7--------7---------------7--6--5--
D|----------------------------------------------------------------------------------------------
A|----------------------------------------------------------------------------------------------
E|----------------------------------------------------------------------------------------------

Stave 12:

E|---------------------------------------------------------
B|----------------------6b8r6--6---------------------------
G|--3b4---------------------------5p3----------------------
D|-------5--5--5--5--------------------5-------------------
A|----------------------------------------5--3--1b2--------
E|---------------------------------------------------3--3--

http://www.guitartabcreator.com
Guitar Tab Creator is intended to store guitar tab created through the tool. It currently does not support in-line text editing. Any text you place in here will be lost. If you need to comment on your tab, please use the "Tab Notes" section located below.