Sound will begin in 5 seconds

All Blues 6/4/74 part 2 -starts at 6:52

01234567891011121314151617181920212223
E
B
G
D
A
E
B
0 1 2 3 4 5 6 7 8 9 10 11 12 13 14 15 16 17 18 19 20 21 22 23
Song Science #1: How Pros Use 6 Chords to Write Hit Songs
(/) Slide Up  (\) Slide Down  (h) Hammer On  (p) Pull Off  (b) Bend (r) Release (v) Vibrato

Stave 1:

E|-----------------13-----------------------------------------------------------------------
B|------11--13/15------15--13--11------11/12--11/12-----------------------------------------
G|--12-----------------------------12----------------12-------------------------------------
D|-------------------------------------------------------12------10--8/9--8/9--8/9----------
A|-----------------------------------------------------------13---------------------10--10--
E|------------------------------------------------------------------------------------------

Stave 2:

E|--10----------------------------------------------------------------------------------------
B|------13p11------13p11------11----------------------11b12--11b12------11b12--11b12----------
G|-------------12---------12------12--11------11--12----------------12----------------12--12--
D|----------------------------------------12--------------------------------------------------
A|--------------------------------------------------------------------------------------------
E|--------------------------------------------------------------------------------------------

Stave 3:

E|---------------------------------6-----5--------------------------------------------------------
B|--11b12------------11b12------------8-----6--8--6--6b8--6---------------------------------------
G|---------12p11h12---------12-------------------------------7--5--3-----3-----5b7--7--7r5--3-----
D|--------------------------------------------------------------------5-----5------------------5--
A|------------------------------------------------------------------------------------------------
E|------------------------------------------------------------------------------------------------

Stave 4:

E|----------------------------------------------------------------------------------------
B|--------------------------3-------------------------3--4--4b5---------------------------
G|-----------------------2-----5\4--2--4-----2--4--5-------------5--6--7--5-------5-------
D|--5--5p4p3----------4-------------------5----------------------------------6h7-----7/9--
A|---------------4/5----------------------------------------------------------------------
E|----------------------------------------------------------------------------------------

Stave 5:

E|-------------7-----------------------------------------------------------------------------------
B|--8b9v----------------------------------------------------------------------------------------8--
G|--------6/7--------5--3h4-----3b4--3b4-----------------------3b4-----3--5--3-----3--5/7--5/7-----
D|---------------------------5------------5--------3--4--5--5-------5-----------5------------------
A|-------------------------------------------------------------------------------------------------
E|-------------------------------------------------------------------------------------------------

Stave 6:

E|-----------------------------------------------------------------------------------------------
B|--8--------------------------------------------------------------------------------------------
G|-----7\5--3--------------3--5--3---------3--3h5p3-----3-------------------------3-----3--3-----
D|-------------5--5-----5-----------5p4h5------------5-----5--3---------3--5p4h5-----5--------5--
A|---------------------------------------------------------------5p4h5---------------------------
E|-----------------------------------------------------------------------------------------------

Stave 7:

E|------------------------------------------------------------------------------------------
B|-------------------------------6-----6-------6--8--7--6-----------------------------------
G|--3b4-----3b4--3b4--------5/7-----7-----6h7--------------7\5--3h5p3-----5p3-----3/4--3/4--
D|-------5------------5------------------------------------------------5-------5------------
A|------------------------------------------------------------------------------------------
E|------------------------------------------------------------------------------------------

Stave 8:

E|------------------------------------------------------------------------------
B|-----------------------------------13b15r13--11h13p11------13--11------11\10--
G|--3/4--------------------------------------------------12----------12---------
D|-------5--3-----3-----3--5v---------------------------------------------------
A|-------------5-----5----------------------------------------------------------
E|------------------------------------------------------------------------------

Stave 9:

E|--11--14p11---------------------10--13--11---------------------------------------------------
B|-------------12-------------11--------------13----------11-----13--10------------------------
G|-----------------13--11/12----------------------14--12-----------------12p10------10---------
D|------------------------------------------------------------------------------12------11h12--
A|---------------------------------------------------------------------------------------------
E|---------------------------------------------------------------------------------------------

Stave 10:

E|--13--10------10-----------------------------------------------------------------
B|----------13------13--11------13p11------11/12--11/12----------------------------
G|--------------------------12---------12-----------------------12-----------------
D|-------------------------------------------------------10/12------12--10--8------
A|-----------------------------------------------------------------------------10--
E|---------------------------------------------------------------------------------

Stave 11:

E|---------------------------------------------------------
B|---------14/15--18---------18--18------18---------20\19--
G|--15/16-------------17/19----------19------19\18---------
D|---------------------------------------------------------
A|---------------------------------------------------------
E|---------------------------------------------------------

http://www.guitartabcreator.com
Guitar Tab Creator is intended to store guitar tab created through the tool. It currently does not support in-line text editing. Any text you place in here will be lost. If you need to comment on your tab, please use the "Tab Notes" section located below.