Sound will begin in 5 seconds

All Blues 6/4/74

01234567891011121314151617181920212223
E
B
G
D
A
E
B
0 1 2 3 4 5 6 7 8 9 10 11 12 13 14 15 16 17 18 19 20 21 22 23
Song Science #1: How Pros Use 6 Chords to Write Hit Songs
(/) Slide Up  (\) Slide Down  (h) Hammer On  (p) Pull Off  (b) Bend (r) Release (v) Vibrato

Stave 1:

E|-------------------------------------------------------------------------------------
B|--18---------------------------------------------------------------------------------
G|------19\17--15--15/16---------------------------------------------------------------
D|------------------------17-----------------15---------15-----------------------------
A|----------------------------17--15--13/14------15/17------17--15--13h14--------------
E|-------------------------------------------------------------------------15--13--15--

Stave 2:

E|------------------------------------------------------------------------------------------------------
B|--12--------------------------------------------------------------------------------------------------
G|------14--12--14--14p12--14p12----------12--11--12p11------10---------10------------------------------
D|--------------------------------14--12-----------------12------11h12------12\10--8h10p8---------------
A|-----------------------------------------------------------------------------------------10-----------
E|------------------------------------------------------------------------------------------------------

Stave 3:

E|----------------------------------------------------------------------------------------
B|---------------------------------------------------------------------------------9------
G|----------------------------------------------------------------------9--10--12---------
D|--8--------8------8-----10--10p8------10--10/12\10--8--10---------12----------------12--
A|-----9h10-----10------------------10-----------------------10---------------------------
E|----------------------------------------------------------------------------------------

Stave 4:

E|--------------------------------------------------------------15--13----------------------------------
B|-------------11--13--13b15--15--15--15--15--15--15--15r13-------------15--14--13------13--12--11------
G|---------12-----------------------------------------------------------------------15--------------12--
D|--12/14-----------------------------------------------------------------------------------------------
A|------------------------------------------------------------------------------------------------------
E|------------------------------------------------------------------------------------------------------

Stave 5:

E|--18------17--------------------------------------------------------------------------------------
B|------20------18--20--18------17------------------------------------------------------------------
G|--------------------------19------19--17--19--17----------17------17------------------------------
D|--------------------------------------------------20--17------20------20--17--20--17--18--17--16--
A|--------------------------------------------------------------------------------------------------
E|--------------------------------------------------------------------------------------------------

Stave 6:

E|-------------------------------------------------------------------------------------------
B|--------------------------------------------------------6--------3-------------------------
G|--10--11--12-------------10--------------------------------5--5-----3b4--------------------
D|--------------12--11/12------11/12--12--10--8h9--------------------------5--------------3--
A|-------------------------------------------------10-------------------------5--3--1--2-----
E|-------------------------------------------------------------------------------------------

Stave 7:

E|-------------3------------------------------------------------------------
B|----------------6--3-----6--3----------------------------3----------------
G|----------------------5--------5--3-----5--3-----3--4/5-----5--3/4--------
D|-------------------------------------5--------5---------------------5-----
A|-----1--3/5------------------------------------------------------------5--
E|--3-----------------------------------------------------------------------

Stave 8:

E|-------7-----8--7-----6-----5h6-----------5h6--------5h6-----6-------6--------------------
B|-------------------------8-------8--6--8-------8--8-------8-----7h8-----8--8--8--8--8--6--
G|--5/7-----7-------------------------------------------------------------------------------
D|------------------------------------------------------------------------------------------
A|------------------------------------------------------------------------------------------
E|------------------------------------------------------------------------------------------

Stave 9:

E|-----6b7--6b7----------------------------------------------------------------------------
B|--8--------------------------------------------------------------------------------------
G|---------------7--5--3--------5--7--6h7--8--7--5--6--7h8p7--5--6--7--8v--5--6--7--8--9v--
D|------------------------5----------------------------------------------------------------
A|-----------------------------------------------------------------------------------------
E|-----------------------------------------------------------------------------------------

Stave 10:

E|-----------------------------------
B|-----------------------------------
G|--5--6--7--7p6p5--6--7--5--3h4-----
D|--------------------------------5--
A|-----------------------------------
E|-----------------------------------

http://www.guitartabcreator.com
Guitar Tab Creator is intended to store guitar tab created through the tool. It currently does not support in-line text editing. Any text you place in here will be lost. If you need to comment on your tab, please use the "Tab Notes" section located below.