Sound will begin in 5 seconds

after midnight jgb 2/28/80

01234567891011121314151617181920212223
E
B
G
D
A
E
B
0 1 2 3 4 5 6 7 8 9 10 11 12 13 14 15 16 17 18 19 20 21 22 23
Song Science #1: How Pros Use 6 Chords to Write Hit Songs
(/) Slide Up  (\) Slide Down  (h) Hammer On  (p) Pull Off  (b) Bend (r) Release (v) Vibrato

Stave 1:

E|--------------------------------------------------------------------------------------
B|-------------------------------------8-------10-----8--10/12--10--8-----8-------8-----
G|--9--8--7--7-------9-----7--9-----------8h9------9-------------------9-----8h9-----9--
D|--------------8h9-----9--------9------------------------------------------------------
A|--------------------------------------------------------------------------------------
E|--------------------------------------------------------------------------------------

Stave 2:

E|-----------------------------------------------------------------------------------15------15--17p15h
B|---------15--15--15--15--15--15--15h17--17p16p15------15---------17p16h17--17--17------17------------
G|--14/16-------------------------------------------16------15h16--------------------------------------
D|-----------------------------------------------------------------------------------------------------
A|-----------------------------------------------------------------------------------------------------
E|-----------------------------------------------------------------------------------------------------

Stave 3:

E|--17b19r17--17b19r17--15------17--15h16----------------------------------------12--------------
B|--------------------------17-------------17--15------15--17--17------------12------15--14--12--
G|-------------------------------------------------16-----------------14b16----------------------
D|-----------------------------------------------------------------------------------------------
A|-----------------------------------------------------------------------------------------------
E|-----------------------------------------------------------------------------------------------

Stave 4:

E|---------------------------------------------------------------------------------------------
B|---------------------------------------------------------------------------------------------
G|--15--14--12b13------12h13-------------------------------------------------------------------
D|-----------------14---------14--13--12------12-------------------------------------------12--
A|----------------------------------------14------10h11---------10--11--12--12--12/14--14------
E|-------------------------------------------------------12------------------------------------

Stave 5:

E|---------------------------------------------------------------------------9--------------7-------5--
B|---------------------------------------------11--12p11--10---------8---------------------------------
G|---------------------12----------12--13--14-----------------12--9-----8/9-----9--8--8--7-----5h6-----
D|---------12--13--14------14--14----------------------------------------------------------------------
A|--13h14----------------------------------------------------------------------------------------------
E|-----------------------------------------------------------------------------------------------------

Stave 6:

E|-------------------------------------------------------------------------------------------------
B|--10--10/12--12--10-----12--10---------12--------------------------------------------------------
G|---------------------9----------12/13----------14--12h13----------------13---------14b16--14b16--
D|-------------------------------------------14-------------14p13p12----------14-------------------
A|--------------------------------------------------------------------14---------------------------
E|-------------------------------------------------------------------------------------------------

Stave 7:

E|------------------------------------------------------------------------------------------------------
B|------------------------------------------------------------------------------------------------------
G|--15\14--12------14--12------12--12------------------------------------------12--14--12h13------------
D|-------------14----------14----------14p13h14-----------------14p12------12-----------------14p12h14--
A|--------------------------------------------------12--13--14---------14-------------------------------
E|------------------------------------------------------------------------------------------------------

Stave 8:

E|----------------------------------------------------------------------------------------------------
B|----------------------------------------------------------------------------------------------------
G|-------------------------12/13--12/13------------------------14b16r14--12h14--12--14--16r14p12------
D|--14p12------12--14--12----------------14p12------12--14----------------------------------------14--
A|---------14-----------------------------------14----------------------------------------------------
E|----------------------------------------------------------------------------------------------------

Stave 9:

E|--------------------------------------------------------------------------------------------------------
B|--------------------------------------------------------------------------------------------------------
G|--12--12------------------------------------------------------------------------------------------------
D|----------14p12------14p12h14--12h14--------------14--12------12-------------14-------------------------
A|-----------------14-------------------12--13--14----------14------14--12h14------12----------10h11------
E|-------------------------------------------------------------------------------------12--12---------10--

Stave 10:

E|--------------------------------------------------------------------------------------------
B|--------------------------------------------------------------------------------------------
G|--------------------------------------------------------7-----------------------------------
D|--------------5--6--7p6-----5--7p5-----5--6--7--5--7/9-----9--8--7--5h7-------5-------------
A|-----------7-------------7----------7------------------------------------5h7-----7p5-----5--
E|--12\0--------------------------------------------------------------------------------7-----

Stave 11:

E|------------------------------------------------------------------------------------------------------
B|------------------------------------------------------------------------------------------------------
G|------------------------------------------------------------------------------------------------------
D|----------------------------7p6p5-----5h6-------------------------------------------------------------
A|--5--7p5-----7-----5--5------------7-------7p5-----5h7--------5------------------------------------5--
E|----------7-----7-------------------------------7-------7--7-----7--6--5--4-----4--5p4h5--4--5--7-----

Stave 12:

E|------------------------------------------------------------
B|---------------------------------------------------------8--
G|------------------------------------------------------------
D|----------------5--------------------------5-----5--7/9-----
A|-------5--6--7-------------5-------7p5--------7-------------
E|--6h7-----------------6h7-----6h7-------7-------------------

http://www.guitartabcreator.com
Guitar Tab Creator is intended to store guitar tab created through the tool. It currently does not support in-line text editing. Any text you place in here will be lost. If you need to comment on your tab, please use the "Tab Notes" section located below.