Untitled Work

01234567891011121314151617181920212223
E
B
G
D
A
E
B
0 1 2 3 4 5 6 7 8 9 10 11 12 13 14 15 16 17 18 19 20 21 22 23
(/) Slide Up  (\) Slide Down  (h) Hammer On  (p) Pull Off  (b) Bend (r) Release (v) Vibrato

Stave 1:

G|--15--x--x--x--17--x--x--x-----------|--15--x--x--x--17--x--x--x-----------|--15--x--x--x--17--x--x--x-----------|--15--x--x--x--17--x--x--x-----|--
D|----------------------------------|-------------------------------------|-------------------------------------|----------------------------------|--
A|-------------------------------|-------------------------------------|-------------------------------------|-------------------------------------|--
E|----------------------------|-------------------------------------|-------------------------------------|-------------------------------------|--

Stave 2:

G|--15--15--x--x--17--17--x--x--|--15--15--x--x--17--17--x--x--|--15--15--x--x--17--17--x--x--|--15--15--x--x--17--|--
D|------------------------------|------------------------------|------------------------------|--------------------|--
A|------------------------------|------------------------------|------------------------------|--------------------|--
E|------------------------------|------------------------------|------------------------------|--------------------|--

Stave 3:

G|-------------------5--7---------------------------------------5--7---------------------------------------5--7----------------------
D|-------------5--7-------------------5--7--5-------------5--7-------------------5--7--5-------------5--7-------------------5--7--5--
A|--3--3--3/7--------------3--3--3/7-----------3--3--3/7--------------3--3--3/7-----------3--3--3/7--------------3--3--3/7-----------
E|-----------------------------------------------------------------------------------------------------------------------------------

Stave 4:

G|-------------------5--7----------------14--12--
D|-------------5--7------------------------------
A|--3--3--3/7--------------3--3--3/7-------------
E|-----------------------------------------------

							http://www.guitartabcreator.com
Chords

Tab Notes
Around 100bpm. Stave 4 is the second ending of stave 3. Staves 1 and 2 are a different part from the rest, to be recorded and overlaid.
Instruments
{"strings":[[[15,"x15","x15","x15",17,"x17","x17","x17",".",".",".","|",15,"x15","x15","x15",17,"x15","x15","x15",".",".",".","|",15,"x15","x15","x15",17,"x17","x17","x17",".",".",".","|",15,"x17","x17","x17",17,"x15","x15","x15",".",null,null,"|"],[".",".",".",".",".",".",".",".",".",".","|",".",".",".",".",".",".",".",".",".",".",".","|",".",".",".",".",".",".",".",".",".",".",".","|",".",".",".",".",".",".",".",".",".",".",null,"|"],[".",".",".",".",".",".",".",".",".","|",".",".",".",".",".",".",".",".",".",".",".","|",".",".",".",".",".",".",".",".",".",".",".","|",".",".",".",".",".",".",".",".",".",".",".","|"],[".",".",".",".",".",".",".",".","|",".",".",".",".",".",".",".",".",".",".",".","|",".",".",".",".",".",".",".",".",".",".",".","|",".",".",".",".",".",".",".",".",".",".",".","|"]],[[15,15,"x15","x15",17,17,"x15","x15",null,null,null,"|",15,15,"x17","x17",17,17,"x17","x17",null,null,null,"|",15,15,"x17","x17",17,17,"x17","x17",null,null,null,"|",15,15,"x17","x17",17,null,null,null,"|"],[".",".",".",".",".",".",".",".",null,null,"|",null,".",".",".",".",".",".",".",".",null,null,"|",null,".",".",".",".",".",".",".",".",null,null,"|",null,".",".",".",".",".",null,null,"|"],[".",".",".",".",".",".",".",".",null,"|",null,null,".",".",".",".",".",".",".",".",null,"|",null,null,".",".",".",".",".",".",".",".",null,"|",null,null,".",".",".",".",".",null,"|"],[".",".",".",".",".",".",".",".","|",null,null,null,".",".",".",".",".",".",".",".","|",null,null,null,".",".",".",".",".",".",".",".","|",null,null,null,".",".",".",".",".","|"]],[[".",".",".",".",".",".",".",5,7,".",".",".",".",".",".",".",".",".",".",".",".",".",".",".",5,7,".",".",".",".",".",".",".",".",".",".",".",".",".",".",".",5,7,".",".",".",".",".",".",".","."],[".",".",".",".",".",5,7,".",".",".",".",".",".",".",5,7,5,".",".",".",".",".",5,7,".",".",".",".",".",".",".",5,7,5,".",".",".",".",".",5,7,".",".",".",".",".",".",".",5,7,5],[3,3,3,"/",7,".",".",".",".",3,3,3,"/",7,".",".",".",3,3,3,"/",7,".",".",".",".",3,3,3,"/",7,".",".",".",3,3,3,"/",7,".",".",".",".",3,3,3,"/",7,".",".","."],[".",".",".",".",".",".",".",".",".",".",".",".",".",".",".",".",".",".",".",".",".",".",".",".",".",".",".",".",".",".",".",".",".",".",".",".",".",".",".",".",".",".",".",".",".",".",".",".",".",".","."]],[[".",".",".",".",".",".",".",5,7,".",".",".",".",".","_",14,12],[".",".",".",".",".",5,7,".",".",".",".",".",".",".","_",".","."],[3,3,3,"/",7,".",".",".",".",3,3,3,"/",7,"_",".","."],[".",".",".",".",".",".",".",".",".",".",".",".",".",".","_",".","."]]],"numberofstrings":4,"notes":["G","D","A","E"],"capo":0,"stringnotes":["G2","D2","A1","E1"],"comments":["Stave 1:","Stave 2:","Stave 3:","Stave 4:"],"timing":[["W","W","W","W","W","W","W","W",null,null,null,null,"W","W","W","W","W","W","W","W",null,null,null,null,"W","W","W","W","W","W","W","W",null,null,null,null,"W","W","W","W","W","W","W","W"],["W","W","W","W","W","W","W","W",null,null,null,null,"W","W","W","W","W","W","W","W",null,null,null,null,"W","W","W","W","W","W","W","W",null,null,null,null,"H","H","H","H","H"],["W","W","W",null,"W","W","W","W","W","W","W","W",null,"W","W","W","W","W","W","W",null,"W","W","W","W","W","W","W","W",null,"W","W","W","W","W","W","W",null,"W","W","W","W","W","W","W","W",null,"W","W","W","W"],["W","W","W",null,"W","W","W","W","W","W","W","W",null,"W","W","W","W"]],"timingvisible":false,"tabcounter":17,"stave":3,"totalstaves":4,"instrument":"4bass","selectedtuning":"4bass","version":"13"}

Member for

1 month
Submitted by bsauvie on Sat, 2021-10-23 20:53