Sound will begin in 5 seconds

Nothing

Chords
01234567891011121314151617181920212223
E
B
G
D
A
E
B
0 1 2 3 4 5 6 7 8 9 10 11 12 13 14 15 16 17 18 19 20 21 22 23
Song Science #1: How Pros Use 6 Chords to Write Hit Songs
(/) Slide Up  (\) Slide Down  (h) Hammer On  (p) Pull Off  (b) Bend (r) Release (v) Vibrato

Stave 1:

E|--------------------------------------------------------------------------------------
B|--------0--------0--------0--------0--------0-----------0--------0--------0--------0--
G|-----0--------0--------0--------0--------0-----------0--------0--------0--------0-----
D|--2--------2--------2--------2--------2--------------------0--------0--------0--------
A|-----------------------------------------------2--3-----------------------------------
E|--------------------------------------------------------------------------------------

Stave 2:

E|--------------------------------------------------------------------------
B|-----0--x-----0--x-----0--x--0--------0--x-----0--x-----0--x-----0--x--0--
G|--------x--------x--------x--------------x--------x--------x--------x-----
D|-----2--x-----0--x-----0--x--0--------2--x-----0--x-----0--x-----0--x--0--
A|--0--------2--------3--------------0--------2--------5--------3-----------
E|--------------------------------------------------------------------------

Stave 3:

E|---------------------------------------------------------
B|--3--x--5--x--7--x--10--x--------3--x--5--x--7--x--0--3--
G|-----x-----x-----x------x-----------x-----x-----x--------
D|-----x-----x-----x------x-----------x-----x-----x--------
A|--3-----5-----7-----10-----------3-----5-----7-----2--3--
E|---------------------------------------------------------

http://www.guitartabcreator.com
Guitar Tab Creator is intended to store guitar tab created through the tool. It currently does not support in-line text editing. Any text you place in here will be lost. If you need to comment on your tab, please use the "Tab Notes" section located below.