Sound will begin in 5 seconds

Everything

Chords
01234567891011121314151617181920212223
E
B
G
D
A
E
B
0 1 2 3 4 5 6 7 8 9 10 11 12 13 14 15 16 17 18 19 20 21 22 23
Song Science #1: How Pros Use 6 Chords to Write Hit Songs
(/) Slide Up  (\) Slide Down  (h) Hammer On  (p) Pull Off  (b) Bend (r) Release (v) Vibrato

Stave 1:

E|--------------------------------------------
B|-----8--x--------3--x-----7--x--------5--x--
G|--------x-----------x--------x-----------x--
D|-----9--x-----4-----x-----7--x-----5-----x--
A|--7--------2-----------5--------3-----------
E|--------------------------------------------

Stave 2:

E|--------------------------------------------------------
B|-----8--x--8--------7--x--7--------3--x--3-----5--x--x--
G|--------x--------------x--------------x-----------x-----
D|-----9--x--9--------7--x--7--------4--x--4-----5--x--x--
A|--7-----------7--5-----------5--2-----------3-----------
E|--------------------------------------------------------

http://www.guitartabcreator.com
Guitar Tab Creator is intended to store guitar tab created through the tool. It currently does not support in-line text editing. Any text you place in here will be lost. If you need to comment on your tab, please use the "Tab Notes" section located below.