CASCADA

Chords

01234567891011121314151617181920212223
E
B
G
D
A
E
B
0 1 2 3 4 5 6 7 8 9 10 11 12 13 14 15 16 17 18 19 20 21 22 23
(/) Slide Up  (\) Slide Down  (h) Hammer On  (p) Pull Off  (b) Bend (r) Release (v) Vibrato

Stave 1:

A|--------7--8--7-----------7--8--7-----------7--8--7--------7--12--
E|-----8-----------8-----8-----------8-----8-----------8-----8--12--
C|--9-----------------9-----------------9-----------------9--9--12--
G|------------------------------------------------------------------
D|------------------------------------------------------------------
A|------------------------------------------------------------------

Stave 2:

A|-------------7--7--7--7--5--5--3--7--7--7--7--7--8---8---7--7--5--5--5--5--7--7--5--5--3--3--2--3--
E|-------------8--8--8--8--7--7--5--8--8--8--8--8--10--10--8--8--7--7--7--7--8--8--7--7--5--5--4--5--
C|---------------------------------------------------------------------------------------------------
G|--7/9--9--9----------------------------------------------------------------------------------------
D|---------------------------------------------------------------------------------------------------
A|---------------------------------------------------------------------------------------------------

Stave 3:

A|-------------7--------7--------7--5-----5-----3-7-----7-----7--8-------8------7--5-----5-----5--
E|-------------8--------8--------8--7-----7-----5/8-----8-----8--10------10-----8--7-----7-----7--
C|------------------------------------------------------------------------------------------------
G|--7/9--9--9-----9--9-----9--9--------7-----5-------9-----9---------10------9--------7-----7-----
D|------------------------------------------------------------------------------------------------
A|------------------------------------------------------------------------------------------------

Stave 4:

A|--7------7-----5--3-----3-----2--3--
E|--8------8-----7--5-----5-----4--5--
C|------------------------------------
G|-----10-----7--------5-----5--------
D|------------------------------------
A|------------------------------------

Stave 5:

A|--10--15--6--5-----------------------------------------
E|--7---12--4-----8--7--5--7--8--7--5--------------------
C|--7---12--4--------------------------7--5--4-----------
G|--7---12--4-----------------------------------7--5--4--
D|-------------------------------------------------------
A|-------------------------------------------------------

Stave 6:

A|----------------------------------------------------------
E|----------------------------------------------------------
C|-------------4--4--4--2--1-----4--5--4--2--4--2-----------
G|-------------5--5--5--4-----3--5--7--5--4--5--4--5--4--5--
D|--1/2--2--2--------------------------------------7--6--7--
A|----------------------------------------------------------

							http://www.guitartabcreator.com
Instruments
{"strings":[[[".",".",7,8,7,".",".",".",7,8,7,".",".",".",7,8,7,".",".",7,12],[".",8,".",".",".",8,".",8,".",".",".",8,".",8,".",".",".",8,".",8,12],[9,".",".",".",".",".",9,".",".",".",".",".",9,".",".",".",".",".",9,9,12],[".",".",".",".",".",".",".",".",".",".",".",".",".",".",".",".",".",".",".",".","."],[".",".",".",".",".",".",".",".",".",".",".",".",".",".",".",".",".",".",".",".","."],[".",".",".",".",".",".",".",".",".",".",".",".",".",".",".",".",".",".",".",".","."]],[[".",".",".",".",".",7,7,7,7,5,5,3,7,7,7,7,7,8,8,7,7,5,5,5,5,7,7,5,5,3,3,2,3],[".",".",".",".",".",8,8,8,8,7,7,5,8,8,8,8,8,10,10,8,8,7,7,7,7,8,8,7,7,5,5,4,5],[".",".",".",".",".",".",".",".",".",".",".",".",".",".",".",".",".",".",".",".",".",".",".",".",".",".",".",".",".",".",".",".","."],[7,"/",9,9,9,".",".",".",".",".",".",".",".",".",".",".",".",".",".",".",".",".",".",".",".",".",".",".",".",".",".",".","."],[".",".",".",".",".",".",".",".",".",".",".",".",".",".",".",".",".",".",".",".",".",".",".",".",".",".",".",".",".",".",".",".","."],[".",".",".",".",".",".",".",".",".",".",".",".",".",".",".",".",".",".",".",".",".",".",".",".",".",".",".",".",".",".",".",".","."]],[[".",".",".",".",".",7,".",".",7,".",".",7,5,".",5,".",3,".",7,".",7,".",7,8,".",8,".",7,5,".",5,".",5],[".",".",".",".",".",8,".",".",8,".",".",8,7,".",7,".",5,"/",8,".",8,".",8,10,".",10,".",8,7,".",7,".",7],[".",".",".",".",".",".",".",".",".",".",".",".",".",".",".",".",".",".",".",".",".",".",".",".",".",".",".",".",".",".",".",".","."],[7,"/",9,9,9,".",9,9,".",9,9,".",".",7,".",5,".",".",".",9,".",9,".",".",10,".",9,".",".",7,".",7,"."],[".",".",".",".",".",".",".",".",".",".",".",".",".",".",".",".",".",".",".",".",".",".",".",".",".",".",".",".",".",".",".",".","."],[".",".",".",".",".",".",".",".",".",".",".",".",".",".",".",".",".",".",".",".",".",".",".",".",".",".",".",".",".",".",".",".","."]],[[7,".",7,".",5,3,".",3,".",2,3],[8,".",8,".",7,5,".",5,".",4,5],[".",".",".",".",".",".",".",".",".",".","."],[".",10,".",7,".",".",5,".",5,".","."],[".",".",".",".",".",".",".",".",".",".","."],[".",".",".",".",".",".",".",".",".",".","."]],[[10,15,6,5,".",".",".",".",".",".",".",".",".",".",".",".","."],[7,12,4,".",8,7,5,7,8,7,5,".",".",".",".",".","."],[7,12,4,".",".",".",".",".",".",".",".",7,5,4,".",".","."],[7,12,4,".",".",".",".",".",".",".",".",".",".",".",7,5,4],[".",".",".",".",".",".",".",".",".",".",".",".",".",".",".",".","."],[".",".",".",".",".",".",".",".",".",".",".",".",".",".",".",".","."]],[[".",".",".",".",".",".",".",".",".",".",".",".",".",".",".",".",".",".",".","."],[".",".",".",".",".",".",".",".",".",".",".",".",".",".",".",".",".",".",".","."],[".",".",".",".",".",4,4,4,2,1,".",4,5,4,2,4,2,".",".","."],[".",".",".",".",".",5,5,5,4,".",3,5,7,5,4,5,4,5,4,5],[1,"/",2,2,2,".",".",".",".",".",".",".",".",".",".",".",".",7,6,7],[".",".",".",".",".",".",".",".",".",".",".",".",".",".",".",".",".",".",".","."]]],"numberofstrings":6,"notes":["A","E","C","G","D","A","B"],"capo":0,"stringnotes":["A0","E6","C1","G6","D2","A5"],"comments":["Stave 1:","Stave 2:","Stave 3:","Stave 4:","Stave 5:","Stave 6:"],"timing":[["W","W","W","W","W","W","W","W","W","W","W","W","W","W","W","W","W","W","W","W","W"],["W","W","W","W","W","W","W","W","W","W","W","W","W","W","W","W","W","W","W","W","W","W","W","W","W","W","W","W","W","W","W","W","W"],["W",null,"W","W","W","W","W","W","W","W","W","W","W","W","W","W","W",null,"W","W","W","W","W","W","W","W","W","W","W","W","W","W","W"],["W","W","W","W","W","W","W","W","W","W","W","W"],["W","W","W","W","W","W","W","W","W","W","W","W","W","W","W","W","W"],["W",null,"W","W","W","W","W","W","W","W","W","W","W","W","W","W","W","W","W","W"]],"timingvisible":false,"tabcounter":19,"stave":5,"totalstaves":6,"instrument":"6guitar","selectedtuning":"6_standard","version":"13"}

Member for

9 months 1 week
Submitted by BryanRomero_27 on Mon, 2020-09-14 12:47