Sound will begin in 5 seconds

Major Scales and Chords Open D

01234567891011121314151617181920212223
E
B
G
D
A
E
B
0 1 2 3 4 5 6 7 8 9 10 11 12 13 14 15 16 17 18 19 20 21 22 23
Song Science #1: How Pros Use 6 Chords to Write Hit Songs
(/) Slide Up  (\) Slide Down  (h) Hammer On  (p) Pull Off  (b) Bend (r) Release (v) Vibrato

Stave 1:

D|----------------------------
A|----------------------------
F|----------------------------
D|----------------------------
A|----------------------------
D|--0--2--4--5--7--9--11--12--

Stave 2:

D|----------------------------
A|----------------------------
F|----------------------------
D|----------------------------
A|--0--2--4--5--7--9--10--12--
D|----------------------------

Stave 3:

D|----------------------------
A|----------------------------
F|--0--1--3--5--7--9--10--12--
D|----------------------------
A|----------------------------
D|----------------------------

Stave 4:

D|-----------------------------------------------
A|-----------------------------------------4--5--
F|-----------------------------------3--5--------
D|--------------------------2--4--5--------------
A|--------------0--2--4--5-----------------------
D|--0--2--4--5-----------------------------------

Stave 5:

D|-----------------------------------5-----------------7-------------------11----------------------12--12--
A|--------------------------------5-----------------7------------------------------------------12----------
F|-----------------------------5-----------------7-----------------------------------------12--------------
D|--------2--------4--------5-----------------7-----------------9------11--------------12------------------
A|-----2--------4--------5-----------------7-----------------9---------------------12----------------------
D|--2--------4--------5-----------------7-----------------9--------11----------12--------------------------

http://www.guitartabcreator.com
Guitar Tab Creator is intended to store guitar tab created through the tool. It currently does not support in-line text editing. Any text you place in here will be lost. If you need to comment on your tab, please use the "Tab Notes" section located below.