No Me Hables De Sufrir - Tablatura Bajo

Chords

01234567891011121314151617181920212223
E
B
G
D
A
E
B
0 1 2 3 4 5 6 7 8 9 10 11 12 13 14 15 16 17 18 19 20 21 22 23
(/) Slide Up  (\) Slide Down  (h) Hammer On  (p) Pull Off  (b) Bend (r) Release (v) Vibrato

Stave 1:

E|--------------------------------
B|--------------------------------
G|--------------------------------
D|--7--7--5--5--3--3--2-----------
A|-----------------------3--2-----
E|-----------------------------3--

Stave 2:

E|--------------------------------
B|--------------------------------
G|--------------------------------
D|--7--7--5--5--3--3--2--2--3--2--
A|--------------------------------
E|--------------------------------

Stave 3:

E|--------------------------------
B|--------------------------------
G|--------------------------------
D|--------------------------------
A|--5--5--4--4--3--3--2--2--3--2--
E|--------------------------------

Stave 4:

E|----------------------------------
B|----------------------------------
G|----------------------------------
D|--5--5--5--5-----------6--7--7/9--
A|--------------7--7--7-------------
E|----------------------------------

Stave 5:

E|-------------------------------------
B|-------------------------------------
G|-------------------------------------
D|-----7--------------6/9--7--6--------
A|--5-----5--5--7--7-------------7--5--
E|-------------------------------------

Stave 6:

E|-----------------------------
B|-----------------------------
G|-----------------------------
D|-----7-----------------------
A|--5-----5--5--7--7--------7--
E|--------------------7--7-----

Stave 7:

E|--------------------------------------
B|--------------------------------------
G|--------------------------------------
D|------14------14------14--14------14--
A|--12------12------12----------12------
E|--------------------------------------

Stave 8:

E|-----------------------------
B|-----------------------------
G|-----------------------------
D|-----------------------------
A|--9-----9-----9--9--9-----9--
E|-----9-----9-----------9-----

Stave 9:

E|-----------------------------
B|-----------------------------
G|-----------------------------
D|-----------------------------
A|--5-----5-----5--5--5-----5--
E|-----5-----5-----------5-----

Stave 10:

E|----------------------------
B|----------------------------
G|----------------------------
D|----------------------------
A|--7-----7-----7--7--7--7/12\
E|-----7-----7----------------

Stave 11:

E|--------------------------------
B|--------------------------------
G|--------------------------------
D|--------------------------------
A|-----7-----7-----7--12--14--12--
E|--5-----5-----5-----------------

Stave 12:

E|--------------------------------
B|--------------------------------
G|--------------------------------
D|--------------------------------
A|--5--5--7--7--8--8--7--5--7--5--
E|--------------------------------

Stave 13:

E|--------------------------------
B|--------------------------------
G|--------------------------------
D|--------------------------------
A|--7-----7-----7--7--7-----7/12--
E|-----7-----7-----------7--------

Stave 14:

E|---------------------------------------
B|---------------------------------------
G|---------------------------------------
D|---------------------------------------
A|--7--7/17--17--19--19--17--15--13--12--
E|---------------------------------------

Stave 15:

E|--------------------------
B|--------------------------
G|--------------------------
D|--7--7--5--5--3--3--0--2--
A|--------------------------
E|--------------------------

							http://www.guitartabcreator.com
Instruments
{"strings":[[[".",".",".",".",".",".",".",".",".","."],[".",".",".",".",".",".",".",".",".","."],[".",".",".",".",".",".",".",".",".","."],[7,7,5,5,3,3,2,".",".","."],[".",".",".",".",".",".",".",3,2,"."],[".",".",".",".",".",".",".",".",".",3]],[[".",".",".",".",".",".",".",".",".","."],[".",".",".",".",".",".",".",".",".","."],[".",".",".",".",".",".",".",".",".","."],[7,7,5,5,3,3,2,2,3,2],[".",".",".",".",".",".",".",".",".","."],[".",".",".",".",".",".",".",".",".","."]],[[".",".",".",".",".",".",".",".",".","."],[".",".",".",".",".",".",".",".",".","."],[".",".",".",".",".",".",".",".",".","."],[".",".",".",".",".",".",".",".",".","."],[5,5,4,4,3,3,2,2,3,2],[".",".",".",".",".",".",".",".",".","."]],[[".",".",".",".",".",".",".",".",".",".",".","."],[".",".",".",".",".",".",".",".",".",".",".","."],[".",".",".",".",".",".",".",".",".",".",".","."],[5,5,5,5,".",".",".",6,7,7,"/",9],[".",".",".",".",7,7,7,".",".",".",".","."],[".",".",".",".",".",".",".",".",".",".",".","."]],[[".",".",".",".",".",".",".",".",".",".",".",".","."],[".",".",".",".",".",".",".",".",".",".",".",".","."],[".",".",".",".",".",".",".",".",".",".",".",".","."],[".",7,".",".",".",".",6,"/",9,7,6,".","."],[5,".",5,5,7,7,".",".",".",".",".",7,5],[".",".",".",".",".",".",".",".",".",".",".",".","."]],[[".",".",".",".",".",".",".",".","."],[".",".",".",".",".",".",".",".","."],[".",".",".",".",".",".",".",".","."],[".",7,".",".",".",".",".",".","."],[5,".",5,5,7,7,".",".",7],[".",".",".",".",".",".",7,7,"."]],[[".",".",".",".",".",".",".",".","."],[".",".",".",".",".",".",".",".","."],[".",".",".",".",".",".",".",".","."],[".",14,".",14,".",14,14,".",14],[12,".",12,".",12,".",".",12,"."],[".",".",".",".",".",".",".",".","."]],[[".",".",".",".",".",".",".",".","."],[".",".",".",".",".",".",".",".","."],[".",".",".",".",".",".",".",".","."],[".",".",".",".",".",".",".",".","."],[9,".",9,".",9,9,9,".",9],[".",9,".",9,".",".",".",9,"."]],[[".",".",".",".",".",".",".",".","."],[".",".",".",".",".",".",".",".","."],[".",".",".",".",".",".",".",".","."],[".",".",".",".",".",".",".",".","."],[5,".",5,".",5,5,5,".",5],[".",5,".",5,".",".",".",5,"."]],[[".",".",".",".",".",".",".",".",".",".","."],[".",".",".",".",".",".",".",".",".",".","."],[".",".",".",".",".",".",".",".",".",".","."],[".",".",".",".",".",".",".",".",".",".","."],[7,".",7,".",7,7,7,7,"/",12,"\\"],[".",7,".",7,".",".",".",".",".",".","."]],[[".",".",".",".",".",".",".",".","."],[".",".",".",".",".",".",".",".","."],[".",".",".",".",".",".",".",".","."],[".",".",".",".",".",".",".",".","."],[".",7,".",7,".",7,12,14,12],[5,".",5,".",5,".",".",".","."]],[[".",".",".",".",".",".",".",".",".","."],[".",".",".",".",".",".",".",".",".","."],[".",".",".",".",".",".",".",".",".","."],[".",".",".",".",".",".",".",".",".","."],[5,5,7,7,8,8,7,5,7,5],[".",".",".",".",".",".",".",".",".","."]],[[".",".",".",".",".",".",".",".",".",".","."],[".",".",".",".",".",".",".",".",".",".","."],[".",".",".",".",".",".",".",".",".",".","."],[".",".",".",".",".",".",".",".",".",".","."],[7,".",7,".",7,7,7,".",7,"/",12],[".",7,".",7,".",".",".",7,".",".","."]],[[".",".",".",".",".",".",".",".",".",".","."],[".",".",".",".",".",".",".",".",".",".","."],[".",".",".",".",".",".",".",".",".",".","."],[".",".",".",".",".",".",".",".",".",".","."],[7,7,"/",17,17,19,19,17,15,13,12],[".",".",".",".",".",".",".",".",".",".","."]],[[".",".",".",".",".",".",".","."],[".",".",".",".",".",".",".","."],[".",".",".",".",".",".",".","."],[7,7,5,5,3,3,0,2],[".",".",".",".",".",".",".","."],[".",".",".",".",".",".",".","."]]],"numberofstrings":6,"notes":["E","B","G","D","A","E","B"],"capo":0,"stringnotes":["E4","B3","G3","D3","A2","E2"],"comments":["Stave 1:","Stave 2:","Stave 3:","Stave 4:","Stave 5:","Stave 6:","Stave 7:","Stave 8:","Stave 9:","Stave 10:","Stave 11:","Stave 12:","Stave 13:","Stave 14:","Stave 15:","Stave 16:"],"timing":[["W","W","W","W","W","W","W","W","W","W"],["W","W","W","W","W","W","W","W","W","W"],["W","W","W","W","W","W","W","W","W","W"],["W","W","W","W","W","W","W","W","W","W",null,"W"],["W","W","W","W","W","W","W",null,"W","W","W","W","W"],["W","W","W","W","W","W","W","W","W"],["W","W","W","W","W","W","W","W","W"],["W","W","W","W","W","W","W","W","W","W"],["W","W","W","W","W","W","W","W","W","W","W","W","W"],["W","W","W","W","W","W","W","W",null,"W"],["W","W","W","W","W","W","W","W","W"],["W","W","W","W","W","W","W","W","W"],["W","W","W","W","W","W","W","W","W","W"],["W","W","W","W","W","W","W","W","W",null,"W"],["W","W",null,"W","W","W","W","W","W","W","W"],["W","W","W","W","W","W","W","W"]],"timingvisible":false,"tabcounter":10,"stave":0,"totalstaves":15,"instrument":"6guitar","selectedtuning":"6_standard","version":"13"}

Member for

1 week 2 days
Submitted by brunotc on Sun, 2020-06-28 17:55