Sound will begin in 5 seconds

Time's Scar

Chords
01234567891011121314151617181920212223
E
B
G
D
A
E
B
0 1 2 3 4 5 6 7 8 9 10 11 12 13 14 15 16 17 18 19 20 21 22 23
Song Science #1: How Pros Use 6 Chords to Write Hit Songs
(/) Slide Up  (\) Slide Down  (h) Hammer On  (p) Pull Off  (b) Bend (r) Release (v) Vibrato

Stave 1:

E|--------------------------------------------------------------------------------------0--
B|--------------3--------3--------------3--------3--------------3--------3--------------3--
G|-----------0--------0--------------0--------0--------------0--------0--------------0-----
D|--------4--------4--------------4--------4--------------4--------4--------------4--------
A|-----2-----------------------2-----------------------2-----------------------2-----------
E|--0-----------------------0-----------------------0-----------------------0--------------

Stave 2:

E|--0-----7-----7-----5--3--2--3--5--------------3h5p3--2--2--2h3p2--0-----0-----------------------0--
B|--------------------------------------2-------------------------------3-----------3-----------3-----
G|-----0-----0--7-----0--------------0-----0-------------------------------------0-----------0--------
D|--------4-----4--4--------------4-----------4--0----------------------------4-----------4-----------
A|---------------------------------------------------------3---------------------------3--------------
E|--0-----------------------0-------------------------------------------------------------------------

Stave 3:

E|-------------0-----7-----7-----7--9--10--12--10--9--7---------------------------------0-----0--
B|----------3-----------------------------------------7--------10--8h10--10--12--10-----0-----0--
G|-------0--------0-----0--7-----0-------------0---------9--7--0---------------------------------
D|----4--------------4-----4--4------------------------------------------------------0-----0-----
A|-----------------------------------------------------------------------8-------8---------------
E|-------------0-----------------------0---------------------------------------------------------

Stave 4:

E|--------------5-----7--3--2--3--------------------3-----5-----7-----3--5-----------3--------2h3p2--
B|--------------0-----0--------------3-----------3-----3-----------------3-----3---------------------
G|-----------2--------------------0-----------0--------------------------2--2-----2--------0---------
D|--------3--------3-----------4-----------4-----------------0-----0-----4--------------2------------
A|-----3---------------------------------------------------------------------------------------------
E|--1--------------------0--------------0-----------------------3--------------------0---------------

Stave 5:

E|--0--------0--7--------8\7--5-----3-----2-----------2p0-----
B|---------------------------3--------2-----5--3--5-------3--
G|-------------------0-------2--2-----------5--4--5----------
D|----3--2--------0----------0--------------------5----------
A|--3----------------------------------------3----------------
E|-------------3---------------------------------------------

http://www.guitartabcreator.com
Guitar Tab Creator is intended to store guitar tab created through the tool. It currently does not support in-line text editing. Any text you place in here will be lost. If you need to comment on your tab, please use the "Tab Notes" section located below.