Sound will begin in 5 seconds

The Sum - Papadosio

01234567891011121314151617181920212223
E
B
G
D
A
E
B
0 1 2 3 4 5 6 7 8 9 10 11 12 13 14 15 16 17 18 19 20 21 22 23
Song Science #1: How Pros Use 6 Chords to Write Hit Songs
(/) Slide Up  (\) Slide Down  (h) Hammer On  (p) Pull Off  (b) Bend (r) Release (v) Vibrato

Stave 1:

E|--8-----------5-------------
B|---------6h8-----5----------
G|----------------------7--5--
D|----------------------------
A|----------------------------
E|----------------------------

Stave 2:

E|-----8-------------------------------8---------------------5--5--------
B|--------10----10--8--6-------6h8--------10----10--8--6--8--------8--6--
G|--7-----------------------7-------7------------------------------------
D|-----------------------------------------------------------------------
A|-----------------------------------------------------------------------
E|-----------------------------------------------------------------------

Stave 3:

E|---------------------------------------------
B|-----6--8--10--8--6----------6--8--10--8--6--
G|--7------------------7----7------------------
D|---------------------------------------------
A|---------------------------------------------
E|---------------------------------------------

Stave 4:

E|-----------------------------------------------10--8--10--8--------8-----------------
B|-----6--8--10--8--6----------6--8--10--8--6--------------------10-----10----8--10--8/
G|--7------------------7----7----------------------------------------------------------
D|-------------------------------------------------------------------------------------
A|-------------------------------------------------------------------------------------
E|-------------------------------------------------------------------------------------

Stave 5:

E|-------------5-----------8-----------5-----------0-----------1--
B|----------6-----------6-----------5-----------1-----------1-----
G|-------7-----------7-----------5-----------2-----------2--------
D|----8-----------8-----------7-----------3-----------3-----------
A|----------------------------------------------------------------
E|----------------------------------------------------------------

Stave 6:

E|--8h10--8h10\----3h5--3h5----3h5--3-----------
B|-------------------------------------6--3-----
G|-------------------------------------------6--
D|----------------------------------------------
A|----------------------------------------------
E|----------------------------------------------

Stave 7:

E|--------------10----------------10------------------10/
B|------10----------------10------------------10---------
G|----------10----------------10------------------10-----
D|--12----------------12------------------12-------------
A|-------------------------------------------------------
E|-------------------------------------------------------

Stave 8:

E|-----------5-------------5-------------5-----------6-----------6-----------6------------
B|-----5-------------5-------------5-----------6-----------6-----------6------------------
G|--------5-------------5-------------5-----------7-----------7-----------7---------------
D|--7-------------7-------------7-----------8-----------8-----------8-----------8----/10--
A|----------------------------------------------------------------------------------------
E|----------------------------------------------------------------------------------------

Stave 9:

E|------------8------------8------------8--
B|------8------------8------------8--------
G|---------9------------9------------9-----
D|--10-----------10-----------10-----------
A|-----------------------------------------
E|-----------------------------------------

http://www.guitartabcreator.com
Guitar Tab Creator is intended to store guitar tab created through the tool. It currently does not support in-line text editing. Any text you place in here will be lost. If you need to comment on your tab, please use the "Tab Notes" section located below.