rock is fun

01234567891011121314151617181920212223
E
B
G
D
A
E
B
0 1 2 3 4 5 6 7 8 9 10 11 12 13 14 15 16 17 18 19 20 21 22 23
(/) Slide Up  (\) Slide Down  (h) Hammer On  (p) Pull Off  (b) Bend (r) Release (v) Vibrato

Stave 1:

E|----0-----0--------0-----0-----0-----0--------0-0-------0-------0----0-------0----0----0-----0----0----0--
B|----0-----0--------0-----0-----0-----0--------0-0-------0-------0----0-------0----0----0-----0----0----0--
G|----0-----0--------0-----0-----0-----0--------0-0-------0-------0----0-------0----0----0-----0----0----0--
D|----0-----0--------0-----0-----0-----0--------0-0-------0-------0----0-------0----0----0-----0----0----0--
A|----11----11-------11----11----11----11-------9-9-------9-------7----7-------7----9----11----7----9----11-
E|----11----11-------11----11----11----11-------9-9-------9-------7----7-------7----9----11----7----9----11-

Stave 2:

E|---------------------------------------------
B|---------------------------------------------
G|---------------------------------------------
D|-------0h2----0-2-0-2-0----------------------
A|---2-2------------------2b2----9-7-9-7-5-7-9-
E|---------------------------------------------

Stave 3:

E|-
B|-
G|-
D|-
A|-
E|-

							http://www.guitartabcreator.com
Chords

Instruments
{"strings":[[["_",0,"_",0,"_","_",0,"_",0,"_",0,"_",0,"_","_",0,0,"_","_",0,"_","_",0,"_",0,"_","_",0,"_",0,"_",0,"_",0,"_",0,"_",0],["_",0,"_",0,"_","_",0,"_",0,"_",0,"_",0,"_","_",0,0,"_","_",0,"_","_",0,"_",0,"_","_",0,"_",0,"_",0,"_",0,"_",0,"_",0],["_",0,"_",0,"_","_",0,"_",0,"_",0,"_",0,"_","_",0,0,"_","_",0,"_","_",0,"_",0,"_","_",0,"_",0,"_",0,"_",0,"_",0,"_",0],["_",0,"_",0,"_","_",0,"_",0,"_",0,"_",0,"_","_",0,0,"_","_",0,"_","_",0,"_",0,"_","_",0,"_",0,"_",0,"_",0,"_",0,"_",0],["_",11,"_",11,"_","_",11,"_",11,"_",11,"_",11,"_","_",9,9,"_","_",9,"_","_",7,"_",7,"_","_",7,"_",9,"_",11,"_",7,"_",9,"_",11],["_",11,"_",11,"_","_",11,"_",11,"_",11,"_",11,"_","_",9,9,"_","_",9,"_","_",7,"_",7,"_","_",7,"_",9,"_",11,"_",7,"_",9,"_",11]],[[".",".",".",".",".",".","_",".",".",".",".",".",".",".",".","_",".",".",".",".",".",".","."],[".",".",".",".",".",".","_",".",".",".",".",".",".",".",".","_",".",".",".",".",".",".","."],[".",".",".",".",".",".","_",".",".",".",".",".",".",".",".","_",".",".",".",".",".",".","."],[".",".",".",0,"h",2,"_",0,2,0,2,0,".",".",".","_",".",".",".",".",".",".","."],[".",2,2,".",".",".","_",".",".",".",".",".",2,"b",2,"_",9,7,9,7,5,7,9],[".",".",".",".",".",".","_",".",".",".",".",".",".",".",".","_",".",".",".",".",".",".","."]],[[],[],[],[],[],[]]],"numberofstrings":6,"notes":["E","B","G","D","A","E","B"],"capo":0,"stringnotes":["E4","B3","G3","D3","A2","E2"],"comments":["Stave 1:","Stave 2:","Stave 3:"],"timing":[[null,null,null,null,null,null,null,null,null,null,null,null,null,null,null,null,null,null,null,null,null,null,null,null,null,null,null,null,null,null,null,null,null,null,null,null,null,null],[null,null,null,null,null,null,null,null,null,null,null,null,null,null,null,null,null,null,null,null,null,null,null],[null,null,null]],"timingvisible":false,"tabcounter":0,"stave":2,"totalstaves":3,"instrument":"6guitar","selectedtuning":"6_standard","version":"13"}

Member for

1 month 2 weeks
About Me
i love gutar
Submitted by brooke_gutar on Mon, 2021-02-22 14:42