Sound will begin in 5 seconds

Kingdoms - Fight Song (Rachel Platten Cover)

Chords
01234567891011121314151617181920212223
E
B
G
D
A
E
B
0 1 2 3 4 5 6 7 8 9 10 11 12 13 14 15 16 17 18 19 20 21 22 23
Song Science #1: How Pros Use 6 Chords to Write Hit Songs
(/) Slide Up  (\) Slide Down  (h) Hammer On  (p) Pull Off  (b) Bend (r) Release (v) Vibrato

Stave 1:

D|---------------------------------------------
A|------------------------10---------9---------
F|---------9---------9--------------------9----
C|----7---------7---------------7--------------
G|---------------------------------------------
C|---------------------------------------------

Stave 2:

D|----------------------------------------------------------------------------------------------------
A|----------17----------17----------17----------17----------19----------19----------19----------19----
F|----------------------------------------------------------------------------------------------------
C|----14----------14----------14----------14----------16----------16----------16----------16----------
G|----------------------------------------------------------------------------------------------------
C|----------------------------------------------------------------------------------------------------

Stave 3:

D|---------------------------------------
A|---------------------------------------
F|---------------------------------------
C|----7----0----2----4----7----0----2----
G|----7----0----2----4----7----0----2----
C|----7----0----2----4----7----0----2----

Stave 4:

D|------------------------
A|------------------------
F|------------------------
C|----7----2----4----0----
G|----7----2----4----0----
C|----7----2----4----0----

http://www.guitartabcreator.com
Guitar Tab Creator is intended to store guitar tab created through the tool. It currently does not support in-line text editing. Any text you place in here will be lost. If you need to comment on your tab, please use the "Tab Notes" section located below.