Sound will begin in 5 seconds

medley

Chords
01234567891011121314151617181920212223
E
B
G
D
A
E
B
0 1 2 3 4 5 6 7 8 9 10 11 12 13 14 15 16 17 18 19 20 21 22 23
Song Science #1: How Pros Use 6 Chords to Write Hit Songs
(/) Slide Up  (\) Slide Down  (h) Hammer On  (p) Pull Off  (b) Bend (r) Release (v) Vibrato

Stave 1:

E|----------------------------------------------------7--7--7--7--7--7--7--------7--------7-----8-----
B|---------------------------------9--10--9-----7--9--7--7--7--7--7--7-----5--5-----5--5-----5-----5--
G|-----------------------------11------------8--------------------------------------------------------
D|--9--11--11--------------11-------------------------------------------------------------------------
A|--9--11--11--13------13------9----------------------------------------------------------------------
E|--7--9---9-------14---------------------------------------------------------------------------------

Stave 2:

E|---------------------------------------------------------------------------------------------------------
B|------------------------------------------------------------------7--7-----7-----------------------------
G|---------------------------------------5--6--------------5-----5--7--7--5--7--5--------------------------
D|--5--7--7--7--7-----10--7-----5--7-----------7--7--5--7-----7--------------------7--5--7--7--7--x--x--x--
A|--7--9-----------8---------0--------0-----------------------------------------------------------x--x--x--
E|------------------------------------------------------------------------------------------5--5--x--x--x--

Stave 3:

E|---------------------------------------------------------------------------------
B|---------------------------------------------------------------------------------
G|---------------------------------------------------------------------------------
D|--x--7--7--x--x--x--x--x-------------10-----9----------------10-----9-----12-----
A|--x--------x--x--x--x--x--0--10--12------0-----0--0--10--12------0-----0------0--
E|--x--5--5--x--x--x--x--x---------------------------------------------------------

Stave 4:

E|-----------------------------------------------------------------------------------------------------------
B|-----------------------------------------------------------------------------------------------------------
G|-----------2--2--------5--5--------------------------------------------------------------------------------
D|--2--2--2--2--2--5--5--5--5--------------------------------------3--3--3--3--3--3--3--1--1--1--1--1--1--1--
A|--2--2--2--0--0--5--5--3--3--3--3--3--3--3--3--3--3--3--3--3--3--------------------------------------------
E|--0--0--0--------3--3--------------------------------------------------------------------------------------

Stave 5:

E|--------------------------------------------------------------------------------------
B|--------------------------------------------------------------------------------------
G|--------------5-----------3--------------------------3--------------------------------
D|-----------------------------------1-----------3--5-----5--3--------------------------
A|--1--3--4--6-----3--4--6-----1--3-----3--3--5-----------------6--6--6--5--3--3--3--1--
E|--------------------------------------------------------------------------------------

Stave 6:

E|-------------------------------------------------------------------
B|-------------------------------------------------3-----------------
G|-------------------------------------------2--------2--------------
D|----------------------------------------4-----4--------------------
A|-----1-----1--------------3--------3/5-----------------4--2--------
E|--3-----3-----3--3--2--1-----1--1----------------------------5--4--

Stave 7:

E|--------------------------------------------------------------------------
B|--------------------------------------------------------------------------
G|--------------------------------------------------------2--4--------------
D|--------------4--2-----6-----2--4-----------7--4--4--4--------4--4--2--3--
A|-----------4--------4-----4--------------4--------------------------------
E|--2--5--6--------------------------2--5-----------------------------------

http://www.guitartabcreator.com
Guitar Tab Creator is intended to store guitar tab created through the tool. It currently does not support in-line text editing. Any text you place in here will be lost. If you need to comment on your tab, please use the "Tab Notes" section located below.